  0
SECTION
  2
HEADER
  9
$ACADVER
  1
AC1006
  9
$EXTMIN
 10
0.000000
 20
0.000000
 30
0.000000
  9
$EXTMAX
 10
787.000000
 20
976.000000
 30
0.000000
  0
ENDSEC
  0
SECTION
  2
ENTITIES
  0
POLYLINE
  8
0
 66
1
 70
1
  0
VERTEX
  8
0
 10
47.038955
 20
973.811439
 42
0.108713
  0
VERTEX
  8
0
 10
45.633497
 20
971.431558
 42
0.066778
  0
VERTEX
  8
0
 10
45.036858
 20
968.216937
 42
0.066742
  0
VERTEX
  8
0
 10
45.308526
 20
964.956518
 42
0.108205
  0
VERTEX
  8
0
 10
46.468197
 20
962.441130
 42
-0.025306
  0
VERTEX
  8
0
 10
47.717682
 20
960.602794
 42
-0.252330
  0
VERTEX
  8
0
 10
47.764459
 20
959.704343
 42
-0.239460
  0
VERTEX
  8
0
 10
47.035771
 20
959.140668
 42
-0.023057
  0
VERTEX
  8
0
 10
44.750000
 20
958.813358
 42
0.050207
  0
VERTEX
  8
0
 10
42.380063
 20
958.341697
 42
0.390331
  0
VERTEX
  8
0
 10
41.858591
 20
957.451131
 42
0.199940
  0
VERTEX
  8
0
 10
42.701030
 20
956.243817
 42
0.022051
  0
VERTEX
  8
0
 10
45.684607
 20
954.524459
 42
0.074281
  0
VERTEX
  8
0
 10
49.318281
 20
953.278190
 42
0.033618
  0
VERTEX
  8
0
 10
54.329959
 20
952.699776
 42
0.028943
  0
VERTEX
  8
0
 10
60.366415
 20
952.761201
 42
0.019721
  0
VERTEX
  8
0
 10
67.193497
 20
953.497830
 42
-0.047996
  0
VERTEX
  8
0
 10
71.162485
 20
953.700428
 42
-0.054699
  0
VERTEX
  8
0
 10
74.920483
 20
953.116283
 42
-0.059662
  0
VERTEX
  8
0
 10
78.163586
 20
951.810867
 42
-0.083537
  0
VERTEX
  8
0
 10
80.609951
 20
949.878506
 42
-0.174162
  0
VERTEX
  8
0
 10
82.367912
 20
945.610277
 42
-0.104001
  0
VERTEX
  8
0
 10
81.475319
 20
940.128927
 42
-0.091290
  0
VERTEX
  8
0
 10
78.240251
 20
934.861371
 42
-0.098565
  0
VERTEX
  8
0
 10
73.416194
 20
931.258645
 42
-0.044286
  0
VERTEX
  8
0
 10
71.168977
 20
930.421864
 42
-0.099009
  0
VERTEX
  8
0
 10
69.358692
 20
930.293900
 42
-0.052293
  0
VERTEX
  8
0
 10
66.999971
 20
930.849402
 42
-0.005745
  0
VERTEX
  8
0
 10
61.765571
 20
932.743963
 42
0.014364
  0
VERTEX
  8
0
 10
50.708853
 20
936.531647
 42
0.057583
  0
VERTEX
  8
0
 10
43.693346
 20
937.853789
 42
0.077722
  0
VERTEX
  8
0
 10
37.667391
 20
937.347052
 42
0.041044
  0
VERTEX
  8
0
 10
30.528845
 20
934.972945
 42
-0.001675
  0
VERTEX
  8
0
 10
27.831762
 20
933.833400
 42
-0.002624
  0
VERTEX
  8
0
 10
25.503761
 20
932.873303
 42
-0.000701
  0
VERTEX
  8
0
 10
23.469079
 20
932.049961
 42
-0.096072
  0
VERTEX
  8
0
 10
23.211457
 20
932.000000
 42
-0.425422
  0
VERTEX
  8
0
 10
23.109617
 20
932.105798
 42
-0.026312
  0
VERTEX
  8
0
 10
23.153460
 20
932.587702
 42
-0.026194
  0
VERTEX
  8
0
 10
23.281456
 20
933.233317
 42
-0.014810
  0
VERTEX
  8
0
 10
23.500218
 20
934.000686
 42
0.094288
  0
VERTEX
  8
0
 10
23.625558
 20
935.046226
 42
0.056840
  0
VERTEX
  8
0
 10
23.398537
 20
936.277949
 42
0.048064
  0
VERTEX
  8
0
 10
22.837640
 20
937.635225
 42
0.032723
  0
VERTEX
  8
0
 10
21.959083
 20
939.057462
 42
0.013491
  0
VERTEX
  8
0
 10
20.597218
 20
940.864774
 42
0.137577
  0
VERTEX
  8
0
 10
19.843359
 20
941.408237
 42
0.230548
  0
VERTEX
  8
0
 10
19.104594
 20
941.332624
 42
0.045128
  0
VERTEX
  8
0
 10
18.006254
 20
940.505660
 42
0.098102
  0
VERTEX
  8
0
 10
16.566504
 20
938.570525
 42
0.063138
  0
VERTEX
  8
0
 10
15.689426
 20
935.905719
 42
0.061298
  0
VERTEX
  8
0
 10
15.488131
 20
933.010507
 42
0.077729
  0
VERTEX
  8
0
 10
16.041487
 20
930.390880
 42
0.022250
  0
VERTEX
  8
0
 10
16.633491
 20
929.020613
 42
0.156520
  0
VERTEX
  8
0
 10
17.129301
 20
928.501904
 42
0.244318
  0
VERTEX
  8
0
 10
17.707175
 20
928.491387
 42
0.057983
  0
VERTEX
  8
0
 10
18.540739
 20
929.033810
 42
-0.261557
  0
VERTEX
  8
0
 10
19.765597
 20
929.258054
 42
-0.419697
  0
VERTEX
  8
0
 10
20.184780
 20
928.380159
 42
-0.051604
  0
VERTEX
  8
0
 10
18.504072
 20
924.921890
 42
-0.015706
  0
VERTEX
  8
0
 10
15.274928
 20
920.066667
 42
-0.293334
  0
VERTEX
  8
0
 10
15.071974
 20
919.985176
 42
-0.069376
  0
VERTEX
  8
0
 10
14.709614
 20
920.108229
 42
-0.050109
  0
VERTEX
  8
0
 10
14.259163
 20
920.394439
 42
-0.029817
  0
VERTEX
  8
0
 10
13.783333
 20
920.816667
 42
0.149156
  0
VERTEX
  8
0
 10
12.320429
 20
921.595589
 42
0.031729
  0
VERTEX
  8
0
 10
9.427239
 20
921.972961
 42
0.028649
  0
VERTEX
  8
0
 10
6.633511
 20
921.998057
 42
0.400137
  0
VERTEX
  8
0
 10
6.000000
 20
921.333183
 42
0.114654
  0
VERTEX
  8
0
 10
6.110646
 20
920.857006
 42
0.001511
  0
VERTEX
  8
0
 10
7.468750
 20
918.113389
 42
0.004248
  0
VERTEX
  8
0
 10
9.083689
 20
914.943283
 42
0.002766
  0
VERTEX
  8
0
 10
11.000000
 20
911.308563
 42
-0.001561
  0
VERTEX
  8
0
 10
12.916700
 20
907.694244
 42
-0.002484
  0
VERTEX
  8
0
 10
14.531250
 20
904.589262
 42
-0.000525
  0
VERTEX
  8
0
 10
15.933008
 20
901.853401
 42
-0.118662
  0
VERTEX
  8
0
 10
16.000000
 20
901.575095
 42
-0.470750
  0
VERTEX
  8
0
 10
15.859891
 20
901.459258
 42
-0.002733
  0
VERTEX
  8
0
 10
13.974381
 20
901.830820
 42
-0.008141
  0
VERTEX
  8
0
 10
11.748727
 20
902.319918
 42
-0.004792
  0
VERTEX
  8
0
 10
9.104275
 20
902.973178
 42
0.014392
  0
VERTEX
  8
0
 10
2.291740
 20
904.517956
 42
0.385131
  0
VERTEX
  8
0
 10
0.824127
 20
903.636144
 42
0.274632
  0
VERTEX
  8
0
 10
1.311643
 20
901.657186
 42
0.010267
  0
VERTEX
  8
0
 10
7.017755
 20
896.094456
 42
0.006508
  0
VERTEX
  8
0
 10
10.263454
 20
893.136034
 42
0.005223
  0
VERTEX
  8
0
 10
13.830181
 20
890.035025
 42
0.005282
  0
VERTEX
  8
0
 10
17.188175
 20
887.237176
 42
0.013393
  0
VERTEX
  8
0
 10
19.702010
 20
885.297009
 42
-0.008971
  0
VERTEX
  8
0
 10
21.698751
 20
883.783918
 42
-0.013250
  0
VERTEX
  8
0
 10
23.390027
 20
882.379778
 42
-0.008432
  0
VERTEX
  8
0
 10
24.734666
 20
881.161188
 42
-0.191777
  0
VERTEX
  8
0
 10
24.952010
 20
880.697980
 42
-0.237214
  0
VERTEX
  8
0
 10
24.791213
 20
880.323989
 42
-0.034924
  0
VERTEX
  8
0
 10
24.104653
 20
879.824349
 42
-0.033162
  0
VERTEX
  8
0
 10
23.145694
 20
879.309166
 42
-0.022819
  0
VERTEX
  8
0
 10
22.000000
 20
878.850155
 42
0.042505
  0
VERTEX
  8
0
 10
20.765849
 20
878.298443
 42
0.063367
  0
VERTEX
  8
0
 10
19.812898
 20
877.600838
 42
0.077596
  0
VERTEX
  8
0
 10
19.207822
 20
876.817068
 42
0.126304
  0
VERTEX
  8
0
 10
19.000000
 20
876.007486
 42
0.089820
  0
VERTEX
  8
0
 10
19.163586
 20
875.104203
 42
0.239104
  0
VERTEX
  8
0
 10
19.632439
 20
874.673442
 42
0.110166
  0
VERTEX
  8
0
 10
20.567227
 20
874.622691
 42
0.014155
  0
VERTEX
  8
0
 10
22.549245
 20
875.011106
 42
-0.065632
  0
VERTEX
  8
0
 10
25.813913
 20
875.308188
 42
-0.048665
  0
VERTEX
  8
0
 10
29.406614
 20
874.810764
 42
-0.026637
  0
VERTEX
  8
0
 10
34.490463
 20
873.304230
 42
-0.005143
  0
VERTEX
  8
0
 10
43.500000
 20
869.998725
 42
0.020770
  0
VERTEX
  8
0
 10
52.251451
 20
867.094754
 42
0.014971
  0
VERTEX
  8
0
 10
62.223754
 20
864.559864
 42
0.014203
  0
VERTEX
  8
0
 10
72.959386
 20
862.488762
 42
0.013350
  0
VERTEX
  8
0
 10
84.018965
 20
860.981232
 42
0.024214
  0
VERTEX
  8
0
 10
92.047299
 20
860.496070
 42
0.029487
  0
VERTEX
  8
0
 10
99.568859
 20
860.849976
 42
0.031107
  0
VERTEX
  8
0
 10
106.634748
 20
862.049555
 42
0.033794
  0
VERTEX
  8
0
 10
113.298664
 20
864.095788
 42
0.028948
  0
VERTEX
  8
0
 10
116.991624
 20
865.759888
 42
0.042788
  0
VERTEX
  8
0
 10
119.987673
 20
867.666630
 42
0.056178
  0
VERTEX
  8
0
 10
121.820390
 20
869.424409
 42
0.387698
  0
VERTEX
  8
0
 10
121.768242
 20
870.565092
 42
0.222759
  0
VERTEX
  8
0
 10
121.291211
 20
870.737621
 42
0.005722
  0
VERTEX
  8
0
 10
118.963717
 20
870.497583
 42
0.011096
  0
VERTEX
  8
0
 10
116.186889
 20
870.116448
 42
0.007219
  0
VERTEX
  8
0
 10
112.997238
 20
869.558961
 42
-0.019081
  0
VERTEX
  8
0
 10
108.955057
 20
868.950890
 42
-0.008705
  0
VERTEX
  8
0
 10
103.637543
 20
868.450934
 42
-0.008525
  0
VERTEX
  8
0
 10
97.933216
 20
868.112345
 42
-0.010560
  0
VERTEX
  8
0
 10
92.614444
 20
868.000000
 42
-0.009829
  0
VERTEX
  8
0
 10
85.723352
 20
868.135478
 42
-0.020847
  0
VERTEX
  8
0
 10
80.404142
 20
868.567287
 42
-0.020323
  0
VERTEX
  8
0
 10
75.055890
 20
869.448660
 42
-0.008884
  0
VERTEX
  8
0
 10
68.041202
 20
871.030074
 42
-0.007184
  0
VERTEX
  8
0
 10
61.261857
 20
872.789108
 42
-0.026980
  0
VERTEX
  8
0
 10
57.094676
 20
874.180183
 42
-0.039885
  0
VERTEX
  8
0
 10
54.005554
 20
875.694789
 42
-0.035499
  0
VERTEX
  8
0
 10
51.066291
 20
877.734061
 42
-0.016952
  0
VERTEX
  8
0
 10
44.229194
 20
883.627679
 42
-0.011880
  0
VERTEX
  8
0
 10
36.922473
 20
890.699769
 42
-0.008915
  0
VERTEX
  8
0
 10
30.492262
 20
897.463496
 42
-0.084935
  0
VERTEX
  8
0
 10
28.338707
 20
900.802483
 42
-0.044030
  0
VERTEX
  8
0
 10
27.758986
 20
902.579383
 42
-0.012897
  0
VERTEX
  8
0
 10
27.183423
 20
905.396008
 42
-0.012847
  0
VERTEX
  8
0
 10
26.696907
 20
908.613244
 42
-0.013450
  0
VERTEX
  8
0
 10
26.384988
 20
911.802483
 42
-0.011047
  0
VERTEX
  8
0
 10
26.170566
 20
916.219941
 42
-0.043002
  0
VERTEX
  8
0
 10
26.333294
 20
918.949631
 42
-0.055588
  0
VERTEX
  8
0
 10
26.935781
 20
921.246233
 42
-0.027834
  0
VERTEX
  8
0
 10
28.170337
 20
923.986625
 42
-0.062473
  0
VERTEX
  8
0
 10
30.778766
 20
927.769172
 42
-0.051582
  0
VERTEX
  8
0
 10
34.400920
 20
931.071416
 42
-0.052609
  0
VERTEX
  8
0
 10
38.532263
 20
933.497798
 42
-0.073277
  0
VERTEX
  8
0
 10
42.647937
 20
934.679604
 42
-0.058049
  0
VERTEX
  8
0
 10
45.187483
 20
934.723707
 42
-0.042669
  0
VERTEX
  8
0
 10
47.957798
 20
934.208458
 42
-0.026684
  0
VERTEX
  8
0
 10
51.639752
 20
932.977957
 42
-0.006955
  0
VERTEX
  8
0
 10
57.411902
 20
930.606689
 42
0.009460
  0
VERTEX
  8
0
 10
65.024636
 20
927.523770
 42
0.049216
  0
VERTEX
  8
0
 10
69.389186
 20
926.327536
 42
0.087143
  0
VERTEX
  8
0
 10
72.649652
 20
926.342826
 42
0.074818
  0
VERTEX
  8
0
 10
75.901216
 20
927.448917
 42
0.062688
  0
VERTEX
  8
0
 10
78.747071
 20
929.406170
 42
0.031475
  0
VERTEX
  8
0
 10
81.820765
 20
932.512018
 42
0.031117
  0
VERTEX
  8
0
 10
84.403070
 20
935.873492
 42
0.086951
  0
VERTEX
  8
0
 10
85.609119
 20
938.578740
 42
0.069704
  0
VERTEX
  8
0
 10
85.979654
 20
942.037557
 42
0.046625
  0
VERTEX
  8
0
 10
85.480060
 20
945.992855
 42
0.045098
  0
VERTEX
  8
0
 10
84.217484
 20
949.948503
 42
0.052022
  0
VERTEX
  8
0
 10
82.309540
 20
953.415819
 42
0.063647
  0
VERTEX
  8
0
 10
78.956366
 20
957.131819
 42
0.066124
  0
VERTEX
  8
0
 10
74.816624
 20
959.829279
 42
0.062697
  0
VERTEX
  8
0
 10
69.919238
 20
961.453382
 42
0.048785
  0
VERTEX
  8
0
 10
64.330217
 20
962.000000
 42
-0.015491
  0
VERTEX
  8
0
 10
60.498910
 20
962.118728
 42
-0.075662
  0
VERTEX
  8
0
 10
58.384937
 20
962.575927
 42
-0.080463
  0
VERTEX
  8
0
 10
56.564270
 20
963.629547
 42
-0.018813
  0
VERTEX
  8
0
 10
53.911070
 20
965.969816
 42
-0.014673
  0
VERTEX
  8
0
 10
51.633706
 20
968.267215
 42
-0.070212
  0
VERTEX
  8
0
 10
50.576762
 20
969.774709
 42
-0.107632
  0
VERTEX
  8
0
 10
50.205598
 20
971.187861
 42
-0.060023
  0
VERTEX
  8
0
 10
50.343963
 20
972.969816
 42
0.043451
  0
VERTEX
  8
0
 10
50.583487
 20
975.127684
 42
0.349564
  0
VERTEX
  8
0
 10
50.020490
 20
975.870005
 42
0.243754
  0
VERTEX
  8
0
 10
48.920567
 20
975.613819
 42
0.028447
  0
SEQEND
  0
POLYLINE
  8
0
 66
1
 70
1
  0
VERTEX
  8
0
 10
525.982386
 20
957.446630
 42
-0.060784
  0
VERTEX
  8
0
 10
525.117477
 20
955.610369
 42
-0.014033
  0
VERTEX
  8
0
 10
523.212335
 20
952.762986
 42
-0.014291
  0
VERTEX
  8
0
 10
520.815845
 20
949.586359
 42
-0.013533
  0
VERTEX
  8
0
 10
518.199219
 20
946.492148
 42
0.000000
  0
VERTEX
  8
0
 10
511.588770
 20
939.091035
 42
0.000000
  0
VERTEX
  8
0
 10
508.426351
 20
941.045518
 42
0.012012
  0
VERTEX
  8
0
 10
507.147761
 20
941.793895
 42
0.014865
  0
VERTEX
  8
0
 10
505.921303
 20
942.425871
 42
0.013235
  0
VERTEX
  8
0
 10
504.872125
 20
942.893907
 42
0.098602
  0
VERTEX
  8
0
 10
504.339371
 20
943.000000
 42
0.260883
  0
VERTEX
  8
0
 10
503.914518
 20
942.762137
 42
0.026243
  0
VERTEX
  8
0
 10
503.339719
 20
941.703800
 42
0.027610
  0
VERTEX
  8
0
 10
502.753923
 20
940.278139
 42
0.018331
  0
VERTEX
  8
0
 10
502.234620
 20
938.587403
 42
-0.028481
  0
VERTEX
  8
0
 10
501.616199
 20
936.710502
 42
-0.021284
  0
VERTEX
  8
0
 10
500.732179
 20
934.719150
 42
-0.021667
  0
VERTEX
  8
0
 10
499.734889
 20
932.909492
 42
-0.045053
  0
VERTEX
  8
0
 10
498.777215
 20
931.615295
 42
-0.045707
  0
VERTEX
  8
0
 10
497.194978
 20
930.134337
 42
-0.124393
  0
VERTEX
  8
0
 10
495.800105
 20
929.522299
 42
-0.065616
  0
VERTEX
  8
0
 10
493.791941
 20
929.452139
 42
-0.006541
  0
VERTEX
  8
0
 10
489.000000
 20
929.977527
 42
0.008740
  0
VERTEX
  8
0
 10
484.985453
 20
930.399827
 42
0.002316
  0
VERTEX
  8
0
 10
478.562500
 20
930.932188
 42
0.002349
  0
VERTEX
  8
0
 10
471.249999
 20
931.469631
 42
0.002415
  0
VERTEX
  8
0
 10
464.000000
 20
931.933072
 42
-0.005502
  0
VERTEX
  8
0
 10
456.207843
 20
932.479485
 42
-0.003597
  0
VERTEX
  8
0
 10
447.234375
 20
933.273058
 42
-0.003618
  0
VERTEX
  8
0
 10
438.498716
 20
934.172804
 42
-0.006916
  0
VERTEX
  8
0
 10
431.500000
 20
935.043007
 42
0.013192
  0
VERTEX
  8
0
 10
416.336548
 20
936.735450
 42
0.012290
  0
VERTEX
  8
0
 10
400.742502
 20
937.675237
 42
0.012812
  0
VERTEX
  8
0
 10
386.436246
 20
937.818180
 42
0.027402
  0
VERTEX
  8
0
 10
375.420053
 20
937.041113
 42
0.017842
  0
VERTEX
  8
0
 10
367.186887
 20
935.704912
 42
0.019068
  0
VERTEX
  8
0
 10
359.252625
 20
933.807751
 42
0.016201
  0
VERTEX
  8
0
 10
350.463194
 20
931.038387
 42
0.008043
  0
VERTEX
  8
0
 10
339.500000
 20
926.990256
 42
-0.009344
  0
VERTEX
  8
0
 10
333.102312
 20
924.646814
 42
-0.027347
  0
VERTEX
  8
0
 10
328.586703
 20
923.359327
 42
-0.029230
  0
VERTEX
  8
0
 10
324.124406
 20
922.618013
 42
-0.011964
  0
VERTEX
  8
0
 10
318.000000
 20
922.113119
 42
0.000000
  0
VERTEX
  8
0
 10
307.500000
 20
921.500000
 42
0.000000
  0
VERTEX
  8
0
 10
307.195556
 20
918.369523
 42
0.000000
  0
VERTEX
  8
0
 10
306.891112
 20
915.239046
 42
0.000000
  0
VERTEX
  8
0
 10
300.602801
 20
915.743811
 42
0.005698
  0
VERTEX
  8
0
 10
296.559451
 20
916.022039
 42
0.087817
  0
VERTEX
  8
0
 10
295.178938
 20
915.858549
 42
0.256563
  0
VERTEX
  8
0
 10
294.567189
 20
915.234494
 42
0.078207
  0
VERTEX
  8
0
 10
294.407245
 20
913.874288
 42
-0.318353
  0
VERTEX
  8
0
 10
293.361251
 20
912.268564
 42
-0.185054
  0
VERTEX
  8
0
 10
290.955369
 20
912.241997
 42
-0.055778
  0
VERTEX
  8
0
 10
286.409931
 20
914.530189
 42
-0.011885
  0
VERTEX
  8
0
 10
279.102117
 20
919.546683
 42
0.026172
  0
VERTEX
  8
0
 10
277.646854
 20
920.485664
 42
0.025280
  0
VERTEX
  8
0
 10
276.084865
 20
921.279365
 42
0.026137
  0
VERTEX
  8
0
 10
274.640551
 20
921.835117
 42
0.078917
  0
VERTEX
  8
0
 10
273.602117
 20
922.000092
 42
0.130689
  0
VERTEX
  8
0
 10
272.454296
 20
921.694916
 42
0.217413
  0
VERTEX
  8
0
 10
271.880997
 20
920.896720
 42
0.062649
  0
VERTEX
  8
0
 10
271.757673
 20
919.126822
 42
0.004584
  0
VERTEX
  8
0
 10
272.073821
 20
914.250092
 42
-0.005293
  0
VERTEX
  8
0
 10
272.441012
 20
908.458924
 42
-0.069951
  0
VERTEX
  8
0
 10
272.255388
 20
906.329216
 42
-0.225353
  0
VERTEX
  8
0
 10
271.487824
 20
905.360210
 42
-0.114897
  0
VERTEX
  8
0
 10
269.940983
 20
905.000000
 42
0.047808
  0
VERTEX
  8
0
 10
268.559282
 20
904.867585
 42
0.328504
  0
VERTEX
  8
0
 10
268.123775
 20
904.395307
 42
0.138734
  0
VERTEX
  8
0
 10
268.278406
 20
903.470043
 42
0.008988
  0
VERTEX
  8
0
 10
269.498949
 20
901.002033
 42
0.057761
  0
VERTEX
  8
0
 10
270.739820
 20
899.159315
 42
0.029087
  0
VERTEX
  8
0
 10
272.686154
 20
897.136761
 42
0.023201
  0
VERTEX
  8
0
 10
275.366970
 20
894.878524
 42
0.011986
  0
VERTEX
  8
0
 10
278.910536
 20
892.296581
 42
-0.363408
  0
VERTEX
  8
0
 10
278.971197
 20
892.075632
 42
-0.030062
  0
VERTEX
  8
0
 10
278.669507
 20
891.509065
 42
-0.029231
  0
VERTEX
  8
0
 10
278.177026
 20
890.801197
 42
-0.017319
  0
VERTEX
  8
0
 10
277.513516
 20
890.014934
 42
0.041742
  0
VERTEX
  8
0
 10
276.542619
 20
888.743411
 42
0.302516
  0
VERTEX
  8
0
 10
276.556389
 20
888.012310
 42
0.130611
  0
VERTEX
  8
0
 10
277.340757
 20
887.345336
 42
0.007116
  0
VERTEX
  8
0
 10
280.311559
 20
885.980331
 42
-0.010692
  0
VERTEX
  8
0
 10
282.114975
 20
885.136038
 42
-0.013984
  0
VERTEX
  8
0
 10
283.723519
 20
884.283827
 42
-0.011531
  0
VERTEX
  8
0
 10
285.017001
 20
883.511580
 42
-0.114478
  0
VERTEX
  8
0
 10
285.459302
 20
883.065851
 42
-0.322380
  0
VERTEX
  8
0
 10
285.422528
 20
882.542467
 42
-0.022571
  0
VERTEX
  8
0
 10
284.373227
 20
881.390982
 42
-0.025229
  0
VERTEX
  8
0
 10
282.878424
 20
880.036435
 42
-0.015696
  0
VERTEX
  8
0
 10
281.000722
 20
878.595987
 42
0.011085
  0
VERTEX
  8
0
 10
279.084733
 20
877.154031
 42
0.016189
  0
VERTEX
  8
0
 10
277.468962
 20
875.793907
 42
0.011623
  0
VERTEX
  8
0
 10
276.212999
 20
874.611305
 42
0.200688
  0
VERTEX
  8
0
 10
276.000000
 20
874.102005
 42
0.180713
  0
VERTEX
  8
0
 10
276.203155
 20
873.558267
 42
0.007828
  0
VERTEX
  8
0
 10
277.583825
 20
872.017921
 42
0.012482
  0
VERTEX
  8
0
 10
279.325824
 20
870.226477
 42
0.008491
  0
VERTEX
  8
0
 10
281.391744
 20
868.272935
 42
0.000000
  0
VERTEX
  8
0
 10
286.783488
 20
863.345184
 42
0.000000
  0
VERTEX
  8
0
 10
285.331663
 20
856.873251
 42
0.000000
  0
VERTEX
  8
0
 10
283.879837
 20
850.401317
 42
0.000000
  0
VERTEX
  8
0
 10
287.861804
 20
838.450659
 42
-0.008129
  0
VERTEX
  8
0
 10
289.437065
 20
833.453530
 42
-0.007720
  0
VERTEX
  8
0
 10
290.877735
 20
828.321443
 42
-0.007694
  0
VERTEX
  8
0
 10
292.011485
 20
823.745008
 42
-0.026871
  0
VERTEX
  8
0
 10
292.537108
 20
820.750000
 42
0.017642
  0
VERTEX
  8
0
 10
292.887564
 20
818.511263
 42
0.029601
  0
VERTEX
  8
0
 10
293.357950
 20
816.667146
 42
0.030404
  0
VERTEX
  8
0
 10
293.876714
 20
815.328551
 42
0.298314
  0
VERTEX
  8
0
 10
294.365223
 20
815.021962
 42
0.072281
  0
VERTEX
  8
0
 10
295.032423
 20
815.132143
 42
0.009603
  0
VERTEX
  8
0
 10
296.389496
 20
815.592697
 42
0.010957
  0
VERTEX
  8
0
 10
297.985809
 20
816.208720
 42
0.009001
  0
VERTEX
  8
0
 10
299.662848
 20
816.934051
 42
0.000000
  0
VERTEX
  8
0
 10
303.825697
 20
818.824178
 42
0.000000
  0
VERTEX
  8
0
 10
308.180781
 20
814.662089
 42
0.024352
  0
VERTEX
  8
0
 10
310.295812
 20
812.829222
 42
0.012749
  0
VERTEX
  8
0
 10
313.091099
 20
810.748637
 42
0.012651
  0
VERTEX
  8
0
 10
316.072191
 20
808.756698
 42
0.018924
  0
VERTEX
  8
0
 10
318.781108
 20
807.184336
 42
-0.017970
  0
VERTEX
  8
0
 10
321.969463
 20
805.341815
 42
-0.042322
  0
VERTEX
  8
0
 10
324.164060
 20
803.692324
 42
-0.051393
  0
VERTEX
  8
0
 10
325.784328
 20
801.914173
 42
-0.041157
  0
VERTEX
  8
0
 10
327.148098
 20
799.709704
 42
0.000000
  0
VERTEX
  8
0
 10
329.269846
 20
795.550735
 42
0.000000
  0
VERTEX
  8
0
 10
333.407674
 20
800.121111
 42
-0.022371
  0
VERTEX
  8
0
 10
335.721320
 20
802.457520
 42
-0.046784
  0
VERTEX
  8
0
 10
337.753489
 20
804.008995
 42
-0.050428
  0
VERTEX
  8
0
 10
339.936844
 20
805.084724
 42
-0.030402
  0
VERTEX
  8
0
 10
342.699350
 20
805.927875
 42
0.028973
  0
VERTEX
  8
0
 10
345.051707
 20
806.638506
 42
0.015242
  0
VERTEX
  8
0
 10
347.886469
 20
807.776621
 42
0.015114
  0
VERTEX
  8
0
 10
350.728076
 20
809.123062
 42
0.022463
  0
VERTEX
  8
0
 10
353.120310
 20
810.485273
 42
0.000000
  0
VERTEX
  8
0
 10
358.387421
 20
813.806282
 42
0.000000
  0
VERTEX
  8
0
 10
361.693711
 20
811.284452
 42
-0.005392
  0
VERTEX
  8
0
 10
362.960977
 20
810.296066
 42
-0.008406
  0
VERTEX
  8
0
 10
364.028778
 20
809.414805
 42
-0.003480
  0
VERTEX
  8
0
 10
364.916125
 20
808.646294
 42
-0.215779
  0
VERTEX
  8
0
 10
365.000000
 20
808.460989
 42
-0.082083
  0
VERTEX
  8
0
 10
364.961792
 20
808.229819
 42
-0.000312
  0
VERTEX
  8
0
 10
364.089677
 20
805.668823
 42
-0.001607
  0
VERTEX
  8
0
 10
363.088998
 20
802.766835
 42
-0.001009
  0
VERTEX
  8
0
 10
361.901030
 20
799.379313
 42
0.010435
  0
VERTEX
  8
0
 10
360.358571
 20
794.700296
 42
0.028472
  0
VERTEX
  8
0
 10
359.528246
 20
791.316621
 42
0.037006
  0
VERTEX
  8
0
 10
359.208569
 20
788.415013
 42
0.032600
  0
VERTEX
  8
0
 10
359.298173
 20
785.370570
 42
0.018515
  0
VERTEX
  8
0
 10
360.107555
 20
779.257010
 42
0.378228
  0
VERTEX
  8
0
 10
361.446954
 20
778.176216
 42
0.229858
  0
VERTEX
  8
0
 10
363.364782
 20
779.214267
 42
0.009742
  0
VERTEX
  8
0
 10
367.868202
 20
785.750000
 42
-0.067058
  0
VERTEX
  8
0
 10
376.236209
 20
795.333924
 42
-0.056025
  0
VERTEX
  8
0
 10
387.339601
 20
803.047729
 42
-0.046280
  0
VERTEX
  8
0
 10
401.832930
 20
809.222446
 42
-0.025375
  0
VERTEX
  8
0
 10
420.500000
 20
814.178637
 42
-0.033246
  0
VERTEX
  8
0
 10
432.335794
 20
815.874448
 42
-0.018399
  0
VERTEX
  8
0
 10
446.930276
 20
816.444625
 42
-0.018409
  0
VERTEX
  8
0
 10
461.447122
 20
815.942728
 42
-0.034997
  0
VERTEX
  8
0
 10
473.013341
 20
814.296999
 42
-0.053159
  0
VERTEX
  8
0
 10
495.490072
 20
806.910228
 42
-0.039492
  0
VERTEX
  8
0
 10
518.405258
 20
794.311735
 42
-0.039985
  0
VERTEX
  8
0
 10
538.665869
 20
778.537020
 42
-0.061062
  0
VERTEX
  8
0
 10
553.124840
 20
761.624512
 42
0.000000
  0
VERTEX
  8
0
 10
557.682454
 20
754.749024
 42
0.000000
  0
VERTEX
  8
0
 10
555.885725
 20
745.124512
 42
0.002771
  0
VERTEX
  8
0
 10
555.194383
 20
741.303943
 42
0.003570
  0
VERTEX
  8
0
 10
554.603715
 20
737.785637
 42
0.002732
  0
VERTEX
  8
0
 10
554.146142
 20
734.832632
 42
0.031043
  0
VERTEX
  8
0
 10
554.044499
 20
733.656380
 42
-0.098647
  0
VERTEX
  8
0
 10
553.877574
 20
732.912674
 42
-0.073687
  0
VERTEX
  8
0
 10
553.426879
 20
732.201031
 42
-0.071171
  0
VERTEX
  8
0
 10
552.770410
 20
731.628707
 42
-0.079956
  0
VERTEX
  8
0
 10
552.004450
 20
731.290913
 42
0.272234
  0
VERTEX
  8
0
 10
548.812868
 20
728.086762
 42
0.031285
  0
VERTEX
  8
0
 10
546.819832
 20
717.684272
 42
0.035782
  0
VERTEX
  8
0
 10
546.162810
 20
705.797139
 42
0.053764
  0
VERTEX
  8
0
 10
547.443547
 20
695.500000
 42
-0.005350
  0
VERTEX
  8
0
 10
548.457181
 20
690.977087
 42
-0.064546
  0
VERTEX
  8
0
 10
548.600937
 20
689.203044
 42
-0.148283
  0
VERTEX
  8
0
 10
548.184777
 20
688.035780
 42
-0.063110
  0
VERTEX
  8
0
 10
547.026293
 20
686.824085
 42
0.000000
  0
VERTEX
  8
0
 10
544.961414
 20
685.148170
 42
0.000000
  0
VERTEX
  8
0
 10
547.526040
 20
678.334589
 42
0.016740
  0
VERTEX
  8
0
 10
549.932646
 20
672.537234
 42
0.021457
  0
VERTEX
  8
0
 10
552.548171
 20
667.386417
 42
0.022204
  0
VERTEX
  8
0
 10
555.514618
 20
662.624940
 42
0.020349
  0
VERTEX
  8
0
 10
558.974351
 20
658.000000
 42
-0.008577
  0
VERTEX
  8
0
 10
560.537265
 20
656.010126
 42
-0.006261
  0
VERTEX
  8
0
 10
562.207395
 20
653.748699
 42
-0.006328
  0
VERTEX
  8
0
 10
563.736849
 20
651.564762
 42
-0.013857
  0
VERTEX
  8
0
 10
564.839503
 20
649.846635
 42
0.044618
  0
VERTEX
  8
0
 10
567.573463
 20
646.112941
 42
0.034440
  0
VERTEX
  8
0
 10
571.159628
 20
642.560106
 42
0.035305
  0
VERTEX
  8
0
 10
575.033474
 20
639.668053
 42
0.062885
  0
VERTEX
  8
0
 10
578.619292
 20
637.957482
 42
0.000000
  0
VERTEX
  8
0
 10
582.500000
 20
636.673584
 42
0.000000
  0
VERTEX
  8
0
 10
570.000000
 20
634.324525
 42
-0.000994
  0
VERTEX
  8
0
 10
564.682832
 20
633.336232
 42
-0.000834
  0
VERTEX
  8
0
 10
559.042187
 20
632.309132
 42
-0.000841
  0
VERTEX
  8
0
 10
553.886347
 20
631.388146
 42
-0.002321
  0
VERTEX
  8
0
 10
550.250000
 20
630.762292
 42
0.010366
  0
VERTEX
  8
0
 10
547.470764
 20
630.237784
 42
0.016675
  0
VERTEX
  8
0
 10
545.129688
 20
629.663374
 42
0.010681
  0
VERTEX
  8
0
 10
543.270123
 20
629.097677
 42
0.324225
  0
VERTEX
  8
0
 10
543.000000
 20
628.724900
 42
0.084639
  0
VERTEX
  8
0
 10
543.081892
 20
628.244594
 42
0.011422
  0
VERTEX
  8
0
 10
543.444151
 20
627.283901
 42
0.012906
  0
VERTEX
  8
0
 10
543.933063
 20
626.156693
 42
0.010548
  0
VERTEX
  8
0
 10
544.512004
 20
624.976788
 42
0.000000
  0
VERTEX
  8
0
 10
546.024007
 20
622.052895
 42
0.000000
  0
VERTEX
  8
0
 10
541.806597
 20
619.901333
 42
0.050900
  0
VERTEX
  8
0
 10
537.572031
 20
617.166415
 42
0.018011
  0
VERTEX
  8
0
 10
532.097004
 20
612.449159
 42
0.018063
  0
VERTEX
  8
0
 10
526.965669
 20
607.339015
 42
0.049483
  0
VERTEX
  8
0
 10
523.863302
 20
603.278818
 42
0.033026
  0
VERTEX
  8
0
 10
523.075000
 20
601.792129
 42
0.037311
  0
VERTEX
  8
0
 10
522.525743
 20
600.272971
 42
0.041081
  0
VERTEX
  8
0
 10
522.258648
 20
598.885873
 42
0.091224
  0
VERTEX
  8
0
 10
522.337752
 20
597.816438
 42
-0.136147
  0
VERTEX
  8
0
 10
522.315853
 20
596.341986
 42
-0.017778
  0
VERTEX
  8
0
 10
521.315508
 20
593.333752
 42
-0.016927
  0
VERTEX
  8
0
 10
519.690032
 20
589.384228
 42
-0.007836
  0
VERTEX
  8
0
 10
517.325637
 20
584.361363
 42
0.003797
  0
VERTEX
  8
0
 10
513.984728
 20
577.410267
 42
0.037334
  0
VERTEX
  8
0
 10
512.822869
 20
574.377050
 42
0.098740
  0
VERTEX
  8
0
 10
512.640673
 20
572.451301
 42
0.119952
  0
VERTEX
  8
0
 10
513.245751
 20
570.747689
 42
-0.094557
  0
VERTEX
  8
0
 10
513.969755
 20
568.993775
 42
-0.021050
  0
VERTEX
  8
0
 10
514.491474
 20
565.778054
 42
-0.015974
  0
VERTEX
  8
0
 10
514.893048
 20
561.163257
 42
-0.005553
  0
VERTEX
  8
0
 10
515.185071
 20
554.492639
 42
0.005804
  0
VERTEX
  8
0
 10
515.472057
 20
548.011394
 42
0.014791
  0
VERTEX
  8
0
 10
515.873509
 20
543.324068
 42
0.017960
  0
VERTEX
  8
0
 10
516.382877
 20
539.974947
 42
0.094275
  0
VERTEX
  8
0
 10
517.061548
 20
538.250000
 42
0.032845
  0
VERTEX
  8
0
 10
518.325298
 20
536.511271
 42
0.254449
  0
VERTEX
  8
0
 10
519.226712
 20
536.153005
 42
0.227919
  0
VERTEX
  8
0
 10
520.087925
 20
536.702832
 42
0.026973
  0
VERTEX
  8
0
 10
521.207573
 20
538.750000
 42
-0.140564
  0
VERTEX
  8
0
 10
524.165279
 20
542.082776
 42
-0.024576
  0
VERTEX
  8
0
 10
531.540804
 20
546.271625
 42
-0.019683
  0
VERTEX
  8
0
 10
539.169508
 20
549.751938
 42
-0.366692
  0
VERTEX
  8
0
 10
541.504342
 20
548.992975
 42
0.200744
  0
VERTEX
  8
0
 10
541.901434
 20
548.708887
 42
0.057122
  0
VERTEX
  8
0
 10
542.671243
 20
548.623352
 42
0.046563
  0
VERTEX
  8
0
 10
543.664254
 20
548.719496
 42
0.031030
  0
VERTEX
  8
0
 10
544.772105
 20
549.004287
 42
-0.025283
  0
VERTEX
  8
0
 10
546.291705
 20
549.413587
 42
-0.005773
  0
VERTEX
  8
0
 10
548.901806
 20
549.945408
 42
-0.005958
  0
VERTEX
  8
0
 10
551.928578
 20
550.488510
 42
-0.005769
  0
VERTEX
  8
0
 10
555.000000
 20
550.965569
 42
0.019668
  0
VERTEX
  8
0
 10
558.225972
 20
551.558876
 42
0.014817
  0
VERTEX
  8
0
 10
561.719297
 20
552.454013
 42
0.015040
  0
VERTEX
  8
0
 10
564.957347
 20
553.493229
 42
0.033144
  0
VERTEX
  8
0
 10
567.342286
 20
554.521008
 42
-0.002895
  0
VERTEX
  8
0
 10
571.187799
 20
556.461686
 42
-0.072687
  0
VERTEX
  8
0
 10
572.307714
 20
556.828419
 42
-0.362688
  0
VERTEX
  8
0
 10
572.817010
 20
556.533745
 42
-0.087825
  0
VERTEX
  8
0
 10
573.000000
 20
555.500000
 42
0.091845
  0
VERTEX
  8
0
 10
573.106081
 20
554.927373
 42
0.095961
  0
VERTEX
  8
0
 10
573.409683
 20
554.440625
 42
0.099442
  0
VERTEX
  8
0
 10
573.862550
 20
554.114893
 42
0.106729
  0
VERTEX
  8
0
 10
574.394665
 20
554.000000
 42
0.076177
  0
VERTEX
  8
0
 10
577.865010
 20
554.531805
 42
0.016408
  0
VERTEX
  8
0
 10
583.619574
 20
556.547570
 42
0.018011
  0
VERTEX
  8
0
 10
589.470984
 20
559.061367
 42
0.038265
  0
VERTEX
  8
0
 10
593.750000
 20
561.501584
 42
0.000000
  0
VERTEX
  8
0
 10
599.000000
 20
565.053134
 42
0.000000
  0
VERTEX
  8
0
 10
599.000000
 20
558.812616
 42
-0.025598
  0
VERTEX
  8
0
 10
598.793962
 20
554.790759
 42
-0.002133
  0
VERTEX
  8
0
 10
597.682482
 20
544.407161
 42
-0.002841
  0
VERTEX
  8
0
 10
596.232558
 20
532.026864
 42
-0.002189
  0
VERTEX
  8
0
 10
594.514831
 20
518.536049
 42
0.001834
  0
VERTEX
  8
0
 10
590.270519
 20
485.389362
 42
0.007946
  0
VERTEX
  8
0
 10
588.136552
 20
465.669270
 42
0.011085
  0
VERTEX
  8
0
 10
586.986879
 20
449.209039
 42
0.006406
  0
VERTEX
  8
0
 10
586.297211
 20
429.370840
 42
0.011752
  0
VERTEX
  8
0
 10
586.337726
 20
403.474671
 42
0.020248
  0
VERTEX
  8
0
 10
587.749914
 20
381.964591
 42
0.017132
  0
VERTEX
  8
0
 10
591.087942
 20
358.330521
 42
0.006041
  0
VERTEX
  8
0
 10
597.439312
 20
324.698958
 42
0.003565
  0
VERTEX
  8
0
 10
599.771500
 20
313.530787
 42
0.006555
  0
VERTEX
  8
0
 10
601.853724
 20
304.479217
 42
0.004704
  0
VERTEX
  8
0
 10
603.660267
 20
297.363399
 42
0.082536
  0
VERTEX
  8
0
 10
604.633948
 20
295.198958
 42
0.008833
  0
VERTEX
  8
0
 10
605.701067
 20
293.656091
 42
0.147526
  0
VERTEX
  8
0
 10
606.189247
 20
293.281035
 42
0.410984
  0
VERTEX
  8
0
 10
606.535471
 20
293.434705
 42
0.043092
  0
VERTEX
  8
0
 10
606.812628
 20
294.373532
 42
0.074330
  0
VERTEX
  8
0
 10
606.868578
 20
295.437372
 42
0.014460
  0
VERTEX
  8
0
 10
606.628778
 20
297.349489
 42
0.015074
  0
VERTEX
  8
0
 10
606.213698
 20
299.582053
 42
0.013438
  0
VERTEX
  8
0
 10
605.650892
 20
301.873532
 42
-0.017025
  0
VERTEX
  8
0
 10
603.421764
 20
311.239010
 42
-0.002750
  0
VERTEX
  8
0
 10
599.805807
 20
329.631715
 42
-0.003240
  0
VERTEX
  8
0
 10
596.309504
 20
348.614421
 42
-0.008152
  0
VERTEX
  8
0
 10
594.077788
 20
362.500000
 42
-0.020002
  0
VERTEX
  8
0
 10
590.746913
 20
394.705874
 42
-0.019304
  0
VERTEX
  8
0
 10
589.945666
 20
427.459964
 42
-0.018104
  0
VERTEX
  8
0
 10
591.691230
 20
462.100226
 42
-0.013623
  0
VERTEX
  8
0
 10
596.022818
 20
500.000000
 42
0.002426
  0
VERTEX
  8
0
 10
597.596277
 20
511.481982
 42
0.002267
  0
VERTEX
  8
0
 10
599.095339
 20
523.240625
 42
0.002257
  0
VERTEX
  8
0
 10
600.331980
 20
533.693997
 42
0.007739
  0
VERTEX
  8
0
 10
600.999469
 20
540.500000
 42
0.000091
  0
VERTEX
  8
0
 10
601.462207
 20
546.123596
 42
0.000070
  0
VERTEX
  8
0
 10
601.966436
 20
552.275679
 42
0.000070
  0
VERTEX
  8
0
 10
602.437037
 20
558.037292
 42
0.000166
  0
VERTEX
  8
0
 10
602.785781
 20
562.332097
 42
0.000000
  0
VERTEX
  8
0
 10
603.500000
 20
571.164194
 42
0.000000
  0
VERTEX
  8
0
 10
608.250000
 20
574.677908
 42
0.000000
  0
VERTEX
  8
0
 10
613.000000
 20
578.191622
 42
0.000000
  0
VERTEX
  8
0
 10
613.000000
 20
571.295705
 42
-0.016988
  0
VERTEX
  8
0
 10
612.639778
 20
560.696696
 42
-0.006630
  0
VERTEX
  8
0
 10
611.451105
 20
546.091046
 42
-0.005216
  0
VERTEX
  8
0
 10
609.457226
 20
527.152601
 42
-0.002392
  0
VERTEX
  8
0
 10
606.481853
 20
502.500000
 42
0.003070
  0
VERTEX
  8
0
 10
603.335343
 20
476.128841
 42
0.007338
  0
VERTEX
  8
0
 10
601.407900
 20
456.511807
 42
0.009470
  0
VERTEX
  8
0
 10
600.364958
 20
440.320148
 42
0.011238
  0
VERTEX
  8
0
 10
600.013956
 20
425.000000
 42
0.023709
  0
VERTEX
  8
0
 10
601.655977
 20
390.071943
 42
0.018757
  0
VERTEX
  8
0
 10
606.629387
 20
352.583579
 42
0.017292
  0
VERTEX
  8
0
 10
614.929284
 20
312.460759
 42
0.013574
  0
VERTEX
  8
0
 10
626.595349
 20
269.593854
 42
-0.005210
  0
VERTEX
  8
0
 10
629.906677
 20
258.183158
 42
-0.012084
  0
VERTEX
  8
0
 10
632.093320
 20
249.542163
 42
-0.015696
  0
VERTEX
  8
0
 10
633.473711
 20
242.452402
 42
-0.021529
  0
VERTEX
  8
0
 10
634.237699
 20
236.000000
 42
0.028560
  0
VERTEX
  8
0
 10
634.442067
 20
234.459665
 42
0.069472
  0
VERTEX
  8
0
 10
634.810150
 20
233.377050
 42
0.108319
  0
VERTEX
  8
0
 10
635.333265
 20
232.733132
 42
0.169791
  0
VERTEX
  8
0
 10
636.000000
 20
232.500000
 42
0.373793
  0
VERTEX
  8
0
 10
637.478691
 20
233.784991
 42
0.054248
  0
VERTEX
  8
0
 10
637.615110
 20
238.106477
 42
0.029809
  0
VERTEX
  8
0
 10
636.616327
 20
245.381761
 42
0.007465
  0
VERTEX
  8
0
 10
634.105818
 20
257.104998
 42
-0.013712
  0
VERTEX
  8
0
 10
622.372814
 20
315.443886
 42
-0.020173
  0
VERTEX
  8
0
 10
615.559057
 20
367.276079
 42
-0.022338
  0
VERTEX
  8
0
 10
613.375097
 20
415.031390
 42
-0.025026
  0
VERTEX
  8
0
 10
615.629824
 20
461.000000
 42
-0.008147
  0
VERTEX
  8
0
 10
616.993367
 20
472.768843
 42
-0.005461
  0
VERTEX
  8
0
 10
618.918306
 20
486.179770
 42
-0.003284
  0
VERTEX
  8
0
 10
621.970988
 20
505.089750
 42
-0.000752
  0
VERTEX
  8
0
 10
627.387016
 20
537.000000
 42
0.005673
  0
VERTEX
  8
0
 10
630.404123
 20
555.901956
 42
0.013624
  0
VERTEX
  8
0
 10
632.097435
 20
569.981744
 42
0.016845
  0
VERTEX
  8
0
 10
632.814740
 20
582.175536
 42
0.015024
  0
VERTEX
  8
0
 10
632.751611
 20
594.865523
 42
0.009685
  0
VERTEX
  8
0
 10
632.033199
 20
608.060728
 42
0.105704
  0
VERTEX
  8
0
 10
630.549645
 20
613.135985
 42
0.287813
  0
VERTEX
  8
0
 10
627.693896
 20
614.753323
 42
0.087877
  0
VERTEX
  8
0
 10
622.628162
 20
613.617996
 42
0.059015
  0
VERTEX
  8
0
 10
620.669972
 20
612.513203
 42
0.120514
  0
VERTEX
  8
0
 10
619.541108
 20
611.171219
 42
0.059461
  0
VERTEX
  8
0
 10
618.727420
 20
608.876089
 42
0.006469
  0
VERTEX
  8
0
 10
617.561420
 20
603.378176
 42
-0.016426
  0
VERTEX
  8
0
 10
615.936425
 20
596.403332
 42
-0.016470
  0
VERTEX
  8
0
 10
613.858263
 20
589.556438
 42
-0.017186
  0
VERTEX
  8
0
 10
611.608486
 20
583.615215
 42
-0.045954
  0
VERTEX
  8
0
 10
609.486988
 20
579.620485
 42
-0.040562
  0
VERTEX
  8
0
 10
608.535868
 20
578.397808
 42
-0.097598
  0
VERTEX
  8
0
 10
607.615838
 20
577.721322
 42
-0.105060
  0
VERTEX
  8
0
 10
606.552229
 20
577.472188
 42
-0.051889
  0
VERTEX
  8
0
 10
605.162798
 20
577.587708
 42
0.075248
  0
VERTEX
  8
0
 10
603.612898
 20
577.644186
 42
0.146912
  0
VERTEX
  8
0
 10
602.486944
 20
577.160788
 42
0.081130
  0
VERTEX
  8
0
 10
601.403615
 20
575.904552
 42
0.012689
  0
VERTEX
  8
0
 10
599.759526
 20
573.061806
 42
-0.063617
  0
VERTEX
  8
0
 10
596.808639
 20
568.980663
 42
-0.043671
  0
VERTEX
  8
0
 10
592.548125
 20
565.164669
 42
-0.042272
  0
VERTEX
  8
0
 10
587.502857
 20
562.011128
 42
-0.047885
  0
VERTEX
  8
0
 10
582.200805
 20
559.902987
 42
-0.014982
  0
VERTEX
  8
0
 10
579.623127
 20
559.237150
 42
-0.089355
  0
VERTEX
  8
0
 10
578.241290
 20
559.175502
 42
-0.123736
  0
VERTEX
  8
0
 10
577.139624
 20
559.615360
 42
-0.039847
  0
VERTEX
  8
0
 10
575.790698
 20
560.764858
 42
0.000000
  0
VERTEX
  8
0
 10
573.679787
 20
562.875769
 42
0.000000
  0
VERTEX
  8
0
 10
569.589893
 20
560.084339
 42
-0.038259
  0
VERTEX
  8
0
 10
565.893168
 20
557.955856
 42
-0.025076
  0
VERTEX
  8
0
 10
561.355782
 20
556.059931
 42
-0.023887
  0
VERTEX
  8
0
 10
556.356134
 20
554.524915
 42
-0.024212
  0
VERTEX
  8
0
 10
551.255240
 20
553.481827
 42
0.017451
  0
VERTEX
  8
0
 10
549.588831
 20
553.164462
 42
0.022786
  0
VERTEX
  8
0
 10
548.092985
 20
552.752637
 42
0.021279
  0
VERTEX
  8
0
 10
546.905801
 20
552.310148
 42
0.155715
  0
VERTEX
  8
0
 10
546.450844
 20
551.920464
 42
-0.330259
  0
VERTEX
  8
0
 10
546.069123
 20
551.768327
 42
-0.073567
  0
VERTEX
  8
0
 10
545.382941
 20
552.062959
 42
-0.049544
  0
VERTEX
  8
0
 10
544.519608
 20
552.721245
 42
-0.027501
  0
VERTEX
  8
0
 10
543.601302
 20
553.677125
 42
0.000000
  0
VERTEX
  8
0
 10
541.311398
 20
556.339297
 42
0.000000
  0
VERTEX
  8
0
 10
537.832577
 20
553.685871
 42
-0.046980
  0
VERTEX
  8
0
 10
534.070214
 20
551.339038
 42
-0.011589
  0
VERTEX
  8
0
 10
527.479188
 20
548.230937
 42
-0.004617
  0
VERTEX
  8
0
 10
520.460254
 20
545.195030
 42
-0.305067
  0
VERTEX
  8
0
 10
519.231181
 20
545.435485
 42
-0.158238
  0
VERTEX
  8
0
 10
519.033771
 20
545.822651
 42
-0.004610
  0
VERTEX
  8
0
 10
518.758312
 20
547.664792
 42
-0.008847
  0
VERTEX
  8
0
 10
518.489604
 20
549.865145
 42
-0.005932
  0
VERTEX
  8
0
 10
518.256831
 20
552.389197
 42
-0.027772
  0
VERTEX
  8
0
 10
518.151438
 20
556.677926
 42
-0.025609
  0
VERTEX
  8
0
 10
518.513210
 20
561.070882
 42
-0.026074
  0
VERTEX
  8
0
 10
519.309689
 20
565.314969
 42
-0.032202
  0
VERTEX
  8
0
 10
520.506506
 20
569.156358
 42
0.142820
  0
VERTEX
  8
0
 10
520.564867
 20
569.860563
 42
0.051404
  0
VERTEX
  8
0
 10
520.261130
 20
570.829571
 42
0.045804
  0
VERTEX
  8
0
 10
519.687968
 20
571.883707
 42
0.040138
  0
VERTEX
  8
0
 10
518.909303
 20
572.866977
 42
0.000000
  0
VERTEX
  8
0
 10
516.769550
 20
575.163732
 42
0.000000
  0
VERTEX
  8
0
 10
519.559051
 20
581.727176
 42
-0.026368
  0
VERTEX
  8
0
 10
521.220975
 20
585.127593
 42
-0.026274
  0
VERTEX
  8
0
 10
523.233379
 20
588.338422
 42
-0.023917
  0
VERTEX
  8
0
 10
525.746178
 20
591.574647
 42
-0.015737
  0
VERTEX
  8
0
 10
528.924276
 20
595.058612
 42
-0.010092
  0
VERTEX
  8
0
 10
533.106243
 20
599.192557
 42
-0.055450
  0
VERTEX
  8
0
 10
535.630705
 20
601.106307
 42
-0.064525
  0
VERTEX
  8
0
 10
538.347851
 20
602.284018
 42
-0.016483
  0
VERTEX
  8
0
 10
543.007499
 20
603.459732
 42
-0.018570
  0
VERTEX
  8
0
 10
546.575316
 20
604.098136
 42
-0.013260
  0
VERTEX
  8
0
 10
550.606648
 20
604.557288
 42
-0.013224
  0
VERTEX
  8
0
 10
554.674085
 20
604.803433
 42
-0.017951
  0
VERTEX
  8
0
 10
558.352695
 20
604.796430
 42
0.000000
  0
VERTEX
  8
0
 10
566.190392
 20
604.500000
 42
0.000000
  0
VERTEX
  8
0
 10
559.845196
 20
599.446854
 42
-0.008417
  0
VERTEX
  8
0
 10
553.129784
 20
594.281192
 42
-0.014302
  0
VERTEX
  8
0
 10
547.322252
 20
590.219992
 42
-0.014808
  0
VERTEX
  8
0
 10
541.436557
 20
586.594919
 42
-0.009887
  0
VERTEX
  8
0
 10
534.500000
 20
582.781566
 42
0.003237
  0
VERTEX
  8
0
 10
529.320146
 20
580.023017
 42
0.047310
  0
VERTEX
  8
0
 10
527.601882
 20
578.871612
 42
0.521314
  0
VERTEX
  8
0
 10
527.643288
 20
578.322291
 42
0.131893
  0
VERTEX
  8
0
 10
528.684900
 20
578.031566
 42
0.025822
  0
VERTEX
  8
0
 10
530.091436
 20
578.090283
 42
0.017330
  0
VERTEX
  8
0
 10
531.687734
 20
578.295752
 42
0.017478
  0
VERTEX
  8
0
 10
533.223711
 20
578.603307
 42
0.032699
  0
VERTEX
  8
0
 10
534.434900
 20
578.975249
 42
-0.015183
  0
VERTEX
  8
0
 10
535.418863
 20
579.315537
 42
-0.027311
  0
VERTEX
  8
0
 10
536.246502
 20
579.525094
 42
-0.029083
  0
VERTEX
  8
0
 10
536.858683
 20
579.608388
 42
-0.436974
  0
VERTEX
  8
0
 10
537.000000
 20
579.477564
 42
-0.141411
  0
VERTEX
  8
0
 10
536.907728
 20
579.157835
 42
-0.002944
  0
VERTEX
  8
0
 10
536.008145
 20
577.747561
 42
-0.006627
  0
VERTEX
  8
0
 10
534.917448
 20
576.107777
 42
-0.004384
  0
VERTEX
  8
0
 10
533.623471
 20
574.252315
 42
0.013592
  0
VERTEX
  8
0
 10
530.977762
 20
570.305642
 42
0.017569
  0
VERTEX
  8
0
 10
528.779944
 20
566.539414
 42
0.010649
  0
VERTEX
  8
0
 10
527.112579
 20
563.271653
 42
0.319201
  0
VERTEX
  8
0
 10
527.258536
 20
562.408130
 42
0.437194
  0
VERTEX
  8
0
 10
527.532091
 20
562.418780
 42
0.009140
  0
VERTEX
  8
0
 10
528.495237
 20
563.587420
 42
0.015153
  0
VERTEX
  8
0
 10
529.629128
 20
565.108075
 42
0.008866
  0
VERTEX
  8
0
 10
530.898442
 20
566.992873
 42
-0.015524
  0
VERTEX
  8
0
 10
532.497106
 20
569.299820
 42
-0.007575
  0
VERTEX
  8
0
 10
534.670600
 20
572.145940
 42
-0.007506
  0
VERTEX
  8
0
 10
537.022605
 20
575.040497
 42
-0.010776
  0
VERTEX
  8
0
 10
539.198615
 20
577.526938
 42
-0.005905
  0
VERTEX
  8
0
 10
542.409990
 20
580.958423
 42
-0.074787
  0
VERTEX
  8
0
 10
543.806688
 20
582.036635
 42
-0.215768
  0
VERTEX
  8
0
 10
544.886526
 20
582.126576
 42
-0.098730
  0
VERTEX
  8
0
 10
546.126833
 20
581.385217
 42
-0.097391
  0
VERTEX
  8
0
 10
547.757712
 20
579.199633
 42
-0.046640
  0
VERTEX
  8
0
 10
548.975601
 20
575.900966
 42
-0.038038
  0
VERTEX
  8
0
 10
549.769801
 20
571.643657
 42
-0.022716
  0
VERTEX
  8
0
 10
550.094103
 20
566.500000
 42
0.005059
  0
VERTEX
  8
0
 10
550.176045
 20
563.538250
 42
0.053925
  0
VERTEX
  8
0
 10
550.350524
 20
562.347753
 42
0.625761
  0
VERTEX
  8
0
 10
550.630273
 20
562.291268
 42
0.085659
  0
VERTEX
  8
0
 10
551.000000
 20
563.000000
 42
0.057127
  0
VERTEX
  8
0
 10
551.709333
 20
566.576250
 42
0.026277
  0
VERTEX
  8
0
 10
551.847863
 20
571.330190
 42
0.025608
  0
VERTEX
  8
0
 10
551.468605
 20
576.403667
 42
0.032171
  0
VERTEX
  8
0
 10
550.577800
 20
581.032072
 42
-0.009643
  0
VERTEX
  8
0
 10
549.804417
 20
584.259774
 42
-0.062569
  0
VERTEX
  8
0
 10
549.652926
 20
585.921525
 42
-0.111579
  0
VERTEX
  8
0
 10
549.967773
 20
587.122938
 42
-0.062944
  0
VERTEX
  8
0
 10
550.827800
 20
588.368612
 42
-0.049590
  0
VERTEX
  8
0
 10
554.095692
 20
591.362772
 42
-0.014201
  0
VERTEX
  8
0
 10
559.716323
 20
595.326499
 42
-0.014585
  0
VERTEX
  8
0
 10
565.623050
 20
599.002178
 42
-0.041112
  0
VERTEX
  8
0
 10
570.008548
 20
601.095246
 42
0.000000
  0
VERTEX
  8
0
 10
574.967361
 20
602.979447
 42
0.000000
  0
VERTEX
  8
0
 10
576.445610
 20
600.723354
 42
-0.044394
  0
VERTEX
  8
0
 10
578.112977
 20
597.607199
 42
-0.024812
  0
VERTEX
  8
0
 10
579.600764
 20
593.568622
 42
-0.024841
  0
VERTEX
  8
0
 10
580.667266
 20
589.455063
 42
-0.049987
  0
VERTEX
  8
0
 10
581.015313
 20
586.124273
 42
0.027593
  0
VERTEX
  8
0
 10
581.220289
 20
582.677374
 42
0.146729
  0
VERTEX
  8
0
 10
581.957571
 20
580.962051
 42
0.540641
  0
VERTEX
  8
0
 10
582.798945
 20
581.061615
 42
0.069186
  0
VERTEX
  8
0
 10
583.501529
 20
583.156460
 42
0.062105
  0
VERTEX
  8
0
 10
583.723051
 20
586.760104
 42
0.023645
  0
VERTEX
  8
0
 10
583.169834
 20
591.771868
 42
0.023690
  0
VERTEX
  8
0
 10
582.086229
 20
596.994191
 42
0.035969
  0
VERTEX
  8
0
 10
580.611358
 20
601.387726
 42
0.000000
  0
VERTEX
  8
0
 10
579.122230
 20
604.951711
 42
0.000000
  0
VERTEX
  8
0
 10
585.884748
 20
606.965676
 42
-0.011103
  0
VERTEX
  8
0
 10
588.931163
 20
607.799764
 42
-0.007074
  0
VERTEX
  8
0
 10
592.508479
 20
608.640728
 42
-0.007106
  0
VERTEX
  8
0
 10
596.042126
 20
609.366346
 42
-0.013101
  0
VERTEX
  8
0
 10
598.937317
 20
609.839860
 42
0.000000
  0
VERTEX
  8
0
 10
605.227369
 20
610.700078
 42
0.000000
  0
VERTEX
  8
0
 10
606.716618
 20
607.135802
 42
-0.037758
  0
VERTEX
  8
0
 10
607.277751
 20
605.444224
 42
-0.028027
  0
VERTEX
  8
0
 10
607.647384
 20
603.509523
 42
-0.028074
  0
VERTEX
  8
0
 10
607.797758
 20
601.550397
 42
-0.038470
  0
VERTEX
  8
0
 10
607.698060
 20
599.785537
 42
0.019405
  0
VERTEX
  8
0
 10
607.561230
 20
598.342326
 42
0.044570
  0
VERTEX
  8
0
 10
607.597599
 20
597.252495
 42
0.089291
  0
VERTEX
  8
0
 10
607.786177
 20
596.644057
 42
0.436330
  0
VERTEX
  8
0
 10
608.095126
 20
596.558791
 42
0.219755
  0
VERTEX
  8
0
 10
608.453427
 20
597.100237
 42
0.011111
  0
VERTEX
  8
0
 10
608.734193
 20
599.252239
 42
0.016083
  0
VERTEX
  8
0
 10
608.934372
 20
601.903852
 42
0.010797
  0
VERTEX
  8
0
 10
609.000000
 20
604.942655
 42
0.000000
  0
VERTEX
  8
0
 10
609.000000
 20
612.767275
 42
0.000000
  0
VERTEX
  8
0
 10
604.887005
 20
616.483119
 42
0.034289
  0
VERTEX
  8
0
 10
601.210918
 20
619.372614
 42
0.032692
  0
VERTEX
  8
0
 10
597.117133
 20
621.783619
 42
0.034583
  0
VERTEX
  8
0
 10
593.173638
 20
623.440455
 42
0.080112
  0
VERTEX
  8
0
 10
590.017865
 20
623.978038
 42
0.018800
  0
VERTEX
  8
0
 10
588.581904
 20
623.936747
 42
0.525555
  0
VERTEX
  8
0
 10
588.419968
 20
623.664559
 42
0.139369
  0
VERTEX
  8
0
 10
588.814278
 20
623.203973
 42
0.003842
  0
VERTEX
  8
0
 10
591.042588
 20
621.750000
 42
0.002806
  0
VERTEX
  8
0
 10
592.530049
 20
620.807387
 42
0.002436
  0
VERTEX
  8
0
 10
594.099543
 20
619.835702
 42
0.002451
  0
VERTEX
  8
0
 10
595.529049
 20
618.969901
 42
0.007197
  0
VERTEX
  8
0
 10
596.524722
 20
618.392817
 42
-0.088617
  0
VERTEX
  8
0
 10
598.531953
 20
616.744069
 42
-0.337625
  0
VERTEX
  8
0
 10
598.615725
 20
615.226679
 42
-0.148732
  0
VERTEX
  8
0
 10
596.786048
 20
613.748803
 42
-0.022557
  0
VERTEX
  8
0
 10
592.301551
 20
612.167377
 42
-0.009860
  0
VERTEX
  8
0
 10
584.139347
 20
609.871469
 42
-0.023507
  0
VERTEX
  8
0
 10
577.977067
 20
608.574289
 42
-0.020156
  0
VERTEX
  8
0
 10
571.184664
 20
607.754150
 42
-0.005626
  0
VERTEX
  8
0
 10
560.500000
 20
607.019990
 42
0.010464
  0
VERTEX
  8
0
 10
549.637717
 20
606.167964
 42
0.024716
  0
VERTEX
  8
0
 10
541.608247
 20
604.965700
 42
0.032823
  0
VERTEX
  8
0
 10
535.381100
 20
603.284641
 42
0.048938
  0
VERTEX
  8
0
 10
530.250000
 20
600.949443
 42
-0.023404
  0
VERTEX
  8
0
 10
527.772569
 20
599.665672
 42
-0.510860
  0
VERTEX
  8
0
 10
527.164398
 20
600.008501
 42
-0.178512
  0
VERTEX
  8
0
 10
527.458056
 20
601.206378
 42
-0.008760
  0
VERTEX
  8
0
 10
529.836113
 20
604.599962
 42
-0.030542
  0
VERTEX
  8
0
 10
533.022382
 20
608.461987
 42
-0.023962
  0
VERTEX
  8
0
 10
536.913462
 20
612.250181
 42
-0.023664
  0
VERTEX
  8
0
 10
541.212564
 20
615.703771
 42
-0.027287
  0
VERTEX
  8
0
 10
545.625390
 20
618.562785
 42
0.001475
  0
VERTEX
  8
0
 10
547.526588
 20
619.659630
 42
0.002117
  0
VERTEX
  8
0
 10
549.203839
 20
620.643401
 42
0.001125
  0
VERTEX
  8
0
 10
550.618291
 20
621.485407
 42
0.033170
  0
VERTEX
  8
0
 10
550.962145
 20
621.723444
 42
0.276403
  0
VERTEX
  8
0
 10
551.063040
 20
621.991795
 42
0.037673
  0
VERTEX
  8
0
 10
550.905392
 20
622.596509
 42
0.034571
  0
VERTEX
  8
0
 10
550.586232
 20
623.352561
 42
0.022425
  0
VERTEX
  8
0
 10
550.119975
 20
624.179497
 42
-0.177030
  0
VERTEX
  8
0
 10
549.748924
 20
625.939182
 42
-0.258322
  0
VERTEX
  8
0
 10
550.684261
 20
627.174160
 42
-0.054607
  0
VERTEX
  8
0
 10
553.863732
 20
628.185265
 42
-0.003627
  0
VERTEX
  8
0
 10
563.288262
 20
630.012821
 42
-0.008822
  0
VERTEX
  8
0
 10
569.546011
 20
631.065382
 42
-0.016514
  0
VERTEX
  8
0
 10
574.644633
 20
631.659351
 42
-0.018720
  0
VERTEX
  8
0
 10
579.313211
 20
631.871971
 42
-0.016259
  0
VERTEX
  8
0
 10
584.210399
 20
631.752258
 42
-0.017518
  0
VERTEX
  8
0
 10
590.272233
 20
631.193058
 42
-0.055487
  0
VERTEX
  8
0
 10
594.226747
 20
630.234193
 42
-0.031830
  0
VERTEX
  8
0
 10
598.873887
 20
628.201228
 42
-0.002917
  0
VERTEX
  8
0
 10
610.047407
 20
622.357808
 42
0.014765
  0
VERTEX
  8
0
 10
612.926759
 20
620.937825
 42
0.083442
  0
VERTEX
  8
0
 10
614.574781
 20
620.495646
 42
0.090197
  0
VERTEX
  8
0
 10
616.219086
 20
620.634542
 42
0.018754
  0
VERTEX
  8
0
 10
618.997760
 20
621.499210
 42
0.041715
  0
VERTEX
  8
0
 10
623.829903
 20
623.672007
 42
0.131883
  0
VERTEX
  8
0
 10
626.360397
 20
626.116934
 42
0.197642
  0
VERTEX
  8
0
 10
626.775455
 20
628.861584
 42
0.111614
  0
VERTEX
  8
0
 10
625.250000
 20
631.921460
 42
0.138811
  0
VERTEX
  8
0
 10
621.881409
 20
634.276605
 42
0.026307
  0
VERTEX
  8
0
 10
614.611084
 20
636.380553
 42
0.021922
  0
VERTEX
  8
0
 10
604.399998
 20
638.294156
 42
0.009524
  0
VERTEX
  8
0
 10
590.690426
 20
639.980254
 42
-0.009486
  0
VERTEX
  8
0
 10
586.723649
 20
640.467812
 42
-0.010012
  0
VERTEX
  8
0
 10
582.849250
 20
641.098197
 42
-0.009696
  0
VERTEX
  8
0
 10
579.535389
 20
641.772393
 42
-0.043948
  0
VERTEX
  8
0
 10
577.658268
 20
642.369425
 42
-0.058138
  0
VERTEX
  8
0
 10
573.651030
 20
644.621048
 42
-0.034247
  0
VERTEX
  8
0
 10
569.432270
 20
648.149564
 42
-0.061713
  0
VERTEX
  8
0
 10
567.143970
 20
650.964748
 42
-0.643317
  0
VERTEX
  8
0
 10
567.750000
 20
651.881579
 42
0.048851
  0
VERTEX
  8
0
 10
569.127449
 20
651.800245
 42
0.106242
  0
VERTEX
  8
0
 10
570.148513
 20
652.061331
 42
0.146926
  0
VERTEX
  8
0
 10
570.770102
 20
652.644818
 42
0.132070
  0
VERTEX
  8
0
 10
571.000000
 20
653.500000
 42
0.066372
  0
VERTEX
  8
0
 10
570.923547
 20
654.073404
 42
0.083479
  0
VERTEX
  8
0
 10
570.699687
 20
654.559375
 42
0.099334
  0
VERTEX
  8
0
 10
570.367522
 20
654.884399
 42
0.145135
  0
VERTEX
  8
0
 10
569.977657
 20
655.000000
 42
-0.185486
  0
VERTEX
  8
0
 10
568.147933
 20
655.702962
 42
-0.012752
  0
VERTEX
  8
0
 10
564.053474
 20
659.587612
 42
-0.019202
  0
VERTEX
  8
0
 10
560.009669
 20
663.947658
 42
-0.035477
  0
VERTEX
  8
0
 10
557.130931
 20
667.826547
 42
-0.013145
  0
VERTEX
  8
0
 10
555.863059
 20
669.935700
 42
-0.008721
  0
VERTEX
  8
0
 10
554.515265
 20
672.417431
 42
-0.008781
  0
VERTEX
  8
0
 10
553.289964
 20
674.874969
 42
-0.016881
  0
VERTEX
  8
0
 10
552.410262
 20
676.892367
 42
-0.009827
  0
VERTEX
  8
0
 10
551.436102
 20
679.497919
 42
-0.077089
  0
VERTEX
  8
0
 10
551.199899
 20
680.765282
 42
-0.160144
  0
VERTEX
  8
0
 10
551.454120
 20
681.625964
 42
-0.083853
  0
VERTEX
  8
0
 10
552.241797
 20
682.434856
 42
0.096182
  0
VERTEX
  8
0
 10
553.019319
 20
683.273410
 42
0.129759
  0
VERTEX
  8
0
 10
553.321565
 20
684.258156
 42
0.063729
  0
VERTEX
  8
0
 10
553.189643
 20
685.760951
 42
0.009740
  0
VERTEX
  8
0
 10
552.490421
 20
688.690137
 42
-0.032967
  0
VERTEX
  8
0
 10
551.307201
 20
694.913199
 42
-0.015343
  0
VERTEX
  8
0
 10
550.557686
 20
703.100026
 42
-0.015370
  0
VERTEX
  8
0
 10
550.309792
 20
711.395135
 42
-0.029966
  0
VERTEX
  8
0
 10
550.711696
 20
718.000000
 42
-0.006948
  0
VERTEX
  8
0
 10
551.260754
 20
722.055039
 42
-0.085743
  0
VERTEX
  8
0
 10
551.748565
 20
723.529301
 42
-0.221369
  0
VERTEX
  8
0
 10
552.559633
 20
724.138836
 42
-0.081163
  0
VERTEX
  8
0
 10
554.027625
 20
724.207575
 42
0.113846
  0
VERTEX
  8
0
 10
555.514119
 20
724.374065
 42
0.214309
  0
VERTEX
  8
0
 10
556.372188
 20
725.190406
 42
0.062282
  0
VERTEX
  8
0
 10
556.912613
 20
727.192232
 42
0.003991
  0
VERTEX
  8
0
 10
557.706969
 20
733.207575
 42
-0.008890
  0
VERTEX
  8
0
 10
558.267975
 20
737.157322
 42
-0.007365
  0
VERTEX
  8
0
 10
559.001751
 20
741.341568
 42
-0.007448
  0
VERTEX
  8
0
 10
559.788209
 20
745.157992
 42
-0.019795
  0
VERTEX
  8
0
 10
560.497432
 20
747.848826
 42
-0.011842
  0
VERTEX
  8
0
 10
561.465483
 20
750.760474
 42
-0.075711
  0
VERTEX
  8
0
 10
562.203183
 20
752.124428
 42
-0.170161
  0
VERTEX
  8
0
 10
563.033638
 20
752.676594
 42
-0.127042
  0
VERTEX
  8
0
 10
564.141617
 20
752.673217
 42
0.175087
  0
VERTEX
  8
0
 10
565.476178
 20
752.794839
 42
0.053558
  0
VERTEX
  8
0
 10
567.236061
 20
753.860693
 42
0.031686
  0
VERTEX
  8
0
 10
569.637582
 20
755.945504
 42
0.008204
  0
VERTEX
  8
0
 10
573.228305
 20
759.603497
 42
0.000000
  0
VERTEX
  8
0
 10
580.309554
 20
767.058210
 42
0.000000
  0
VERTEX
  8
0
 10
583.633967
 20
762.382353
 42
-0.009394
  0
VERTEX
  8
0
 10
584.949982
 20
760.455707
 42
-0.010214
  0
VERTEX
  8
0
 10
586.155341
 20
758.533353
 42
-0.009755
  0
VERTEX
  8
0
 10
587.120236
 20
756.848584
 42
-0.048356
  0
VERTEX
  8
0
 10
587.549045
 20
755.845472
 42
0.037099
  0
VERTEX
  8
0
 10
587.959083
 20
754.823313
 42
0.251903
  0
VERTEX
  8
0
 10
588.386651
 20
754.517035
 42
0.170137
  0
VERTEX
  8
0
 10
588.997452
 20
754.646574
 42
0.016247
  0
VERTEX
  8
0
 10
590.292362
 20
755.492225
 42
-0.039927
  0
VERTEX
  8
0
 10
592.243005
 20
756.638288
 42
-0.133071
  0
VERTEX
  8
0
 10
593.690047
 20
756.911786
 42
-0.196060
  0
VERTEX
  8
0
 10
594.742275
 20
756.383900
 42
-0.103179
  0
VERTEX
  8
0
 10
595.471905
 20
755.088518
 42
0.059850
  0
VERTEX
  8
0
 10
596.053414
 20
753.810088
 42
0.002171
  0
VERTEX
  8
0
 10
598.859355
 20
749.241576
 42
0.003952
  0
VERTEX
  8
0
 10
602.248335
 20
743.872357
 42
0.002759
  0
VERTEX
  8
0
 10
606.151715
 20
737.868242
 42
0.001777
  0
VERTEX
  8
0
 10
612.928496
 20
727.648390
 42
0.036910
  0
VERTEX
  8
0
 10
615.189801
 20
724.751930
 42
0.212301
  0
VERTEX
  8
0
 10
616.633207
 20
724.114691
 42
0.225588
  0
VERTEX
  8
0
 10
618.022715
 20
724.779724
 42
-0.021499
  0
VERTEX
  8
0
 10
618.773788
 20
725.629791
 42
-0.026865
  0
VERTEX
  8
0
 10
619.543832
 20
726.347794
 42
-0.026858
  0
VERTEX
  8
0
 10
620.235924
 20
726.866343
 42
-0.148405
  0
VERTEX
  8
0
 10
620.676317
 20
727.000000
 42
-0.273513
  0
VERTEX
  8
0
 10
623.317396
 20
725.438441
 42
-0.011209
  0
VERTEX
  8
0
 10
628.624300
 20
715.255895
 42
-0.019616
  0
VERTEX
  8
0
 10
633.521897
 20
704.253359
 42
-0.034825
  0
VERTEX
  8
0
 10
636.547308
 20
694.806954
 42
0.004595
  0
VERTEX
  8
0
 10
637.667233
 20
690.412091
 42
0.084673
  0
VERTEX
  8
0
 10
638.261505
 20
689.108227
 42
0.352514
  0
VERTEX
  8
0
 10
638.979891
 20
688.888850
 42
0.088762
  0
VERTEX
  8
0
 10
640.093827
 20
689.584912
 42
-0.025715
  0
VERTEX
  8
0
 10
641.251436
 20
690.528990
 42
-0.258836
  0
VERTEX
  8
0
 10
641.847635
 20
690.604616
 42
-0.190783
  0
VERTEX
  8
0
 10
642.342973
 20
690.136251
 42
-0.013937
  0
VERTEX
  8
0
 10
643.102253
 20
688.381977
 42
-0.057446
  0
VERTEX
  8
0
 10
643.554818
 20
686.719840
 42
-0.011834
  0
VERTEX
  8
0
 10
643.941284
 20
683.702831
 42
-0.012301
  0
VERTEX
  8
0
 10
644.222472
 20
680.156960
 42
-0.011303
  0
VERTEX
  8
0
 10
644.339273
 20
676.500000
 42
-0.011963
  0
VERTEX
  8
0
 10
644.257525
 20
670.901499
 42
-0.046733
  0
VERTEX
  8
0
 10
643.802851
 20
667.475000
 42
-0.043042
  0
VERTEX
  8
0
 10
642.703374
 20
664.058542
 42
-0.009101
  0
VERTEX
  8
0
 10
640.173403
 20
658.325349
 42
0.021158
  0
VERTEX
  8
0
 10
637.259208
 20
651.265429
 42
0.039469
  0
VERTEX
  8
0
 10
635.608497
 20
645.307178
 42
0.050395
  0
VERTEX
  8
0
 10
635.184227
 20
640.640499
 42
0.160305
  0
VERTEX
  8
0
 10
636.180059
 20
637.713560
 42
0.071808
  0
VERTEX
  8
0
 10
636.965798
 20
636.933806
 42
0.025490
  0
VERTEX
  8
0
 10
638.287038
 20
636.054444
 42
0.024681
  0
VERTEX
  8
0
 10
639.856627
 20
635.223456
 42
0.026615
  0
VERTEX
  8
0
 10
641.462062
 20
634.574124
 42
0.000000
  0
VERTEX
  8
0
 10
645.397663
 20
633.221128
 42
0.000000
  0
VERTEX
  8
0
 10
650.285291
 20
640.360564
 42
-0.007478
  0
VERTEX
  8
0
 10
652.388566
 20
643.336375
 42
-0.006612
  0
VERTEX
  8
0
 10
654.666468
 20
646.373905
 42
-0.006654
  0
VERTEX
  8
0
 10
656.791386
 20
649.056117
 42
-0.020028
  0
VERTEX
  8
0
 10
658.336459
 20
650.805920
 42
-0.055287
  0
VERTEX
  8
0
 10
664.571750
 20
656.025307
 42
-0.043176
  0
VERTEX
  8
0
 10
672.326682
 20
660.263659
 42
-0.043613
  0
VERTEX
  8
0
 10
680.590232
 20
663.063799
 42
-0.060701
  0
VERTEX
  8
0
 10
688.339094
 20
663.984687
 42
-0.017541
  0
VERTEX
  8
0
 10
691.979392
 20
663.846125
 42
-0.078458
  0
VERTEX
  8
0
 10
694.051916
 20
663.361473
 42
-0.126630
  0
VERTEX
  8
0
 10
695.357088
 20
662.393295
 42
-0.081979
  0
VERTEX
  8
0
 10
696.291557
 20
660.750000
 42
0.108070
  0
VERTEX
  8
0
 10
696.775770
 20
659.992504
 42
0.088585
  0
VERTEX
  8
0
 10
697.564938
 20
659.440918
 42
0.070078
  0
VERTEX
  8
0
 10
698.666106
 20
659.108257
 42
0.038382
  0
VERTEX
  8
0
 10
700.074271
 20
659.000000
 42
-0.056327
  0
VERTEX
  8
0
 10
706.262465
 20
658.300659
 42
-0.031648
  0
VERTEX
  8
0
 10
713.523298
 20
656.147012
 42
-0.029707
  0
VERTEX
  8
0
 10
721.092089
 20
652.848214
 42
-0.029354
  0
VERTEX
  8
0
 10
728.248067
 20
648.663982
 42
-0.020531
  0
VERTEX
  8
0
 10
731.505266
 20
646.294820
 42
-0.131878
  0
VERTEX
  8
0
 10
732.708875
 20
644.673662
 42
-0.253513
  0
VERTEX
  8
0
 10
732.535848
 20
643.240663
 42
-0.085975
  0
VERTEX
  8
0
 10
730.996547
 20
641.710135
 42
0.036541
  0
VERTEX
  8
0
 10
729.898351
 20
640.814664
 42
0.351534
  0
VERTEX
  8
0
 10
729.821209
 20
640.257592
 42
0.145949
  0
VERTEX
  8
0
 10
730.423309
 20
639.705092
 42
0.007245
  0
VERTEX
  8
0
 10
732.882514
 20
638.552979
 42
-0.023612
  0
VERTEX
  8
0
 10
736.675946
 20
636.621999
 42
-0.017246
  0
VERTEX
  8
0
 10
740.701198
 20
634.139943
 42
-0.016678
  0
VERTEX
  8
0
 10
744.710005
 20
631.275633
 42
-0.017444
  0
VERTEX
  8
0
 10
748.457623
 20
628.191196
 42
-0.009977
  0
VERTEX
  8
0
 10
750.686998
 20
626.141343
 42
-0.102328
  0
VERTEX
  8
0
 10
751.394115
 20
625.115315
 42
-0.218812
  0
VERTEX
  8
0
 10
751.366438
 20
624.232869
 42
-0.068451
  0
VERTEX
  8
0
 10
750.601771
 20
623.112455
 42
0.051705
  0
VERTEX
  8
0
 10
749.316897
 20
621.358507
 42
0.214044
  0
VERTEX
  8
0
 10
749.179689
 20
620.083549
 42
0.191529
  0
VERTEX
  8
0
 10
750.047118
 20
619.038937
 42
0.040997
  0
VERTEX
  8
0
 10
752.243850
 20
618.064838
 42
-0.063649
  0
VERTEX
  8
0
 10
757.346498
 20
615.520473
 42
-0.039014
  0
VERTEX
  8
0
 10
762.632374
 20
611.352716
 42
-0.037422
  0
VERTEX
  8
0
 10
766.835623
 20
606.843811
 42
-0.171643
  0
VERTEX
  8
0
 10
767.995495
 20
603.517865
 42
-0.407732
  0
VERTEX
  8
0
 10
767.164237
 20
602.675455
 42
-0.002997
  0
VERTEX
  8
0
 10
756.410084
 20
602.548978
 42
-0.007404
  0
VERTEX
  8
0
 10
746.317777
 20
602.640226
 42
-0.076591
  0
VERTEX
  8
0
 10
742.235479
 20
603.369309
 42
-0.093385
  0
VERTEX
  8
0
 10
740.879972
 20
604.137962
 42
-0.323653
  0
VERTEX
  8
0
 10
740.651382
 20
605.061283
 42
-0.172073
  0
VERTEX
  8
0
 10
741.546557
 20
606.073443
 42
-0.035647
  0
VERTEX
  8
0
 10
743.735828
 20
607.089661
 42
0.024411
  0
VERTEX
  8
0
 10
744.672260
 20
607.499042
 42
0.046331
  0
VERTEX
  8
0
 10
745.371648
 20
607.931256
 42
0.072004
  0
VERTEX
  8
0
 10
745.756268
 20
608.319354
 42
0.371426
  0
VERTEX
  8
0
 10
745.735594
 20
608.597740
 42
0.257615
  0
VERTEX
  8
0
 10
745.331586
 20
608.714409
 42
0.020686
  0
VERTEX
  8
0
 10
744.222931
 20
608.414135
 42
0.023847
  0
VERTEX
  8
0
 10
742.860254
 20
607.911229
 42
0.015821
  0
VERTEX
  8
0
 10
741.346905
 20
607.211902
 42
-0.027390
  0
VERTEX
  8
0
 10
739.025100
 20
606.203471
 42
-0.068224
  0
VERTEX
  8
0
 10
737.221996
 20
605.802640
 42
-0.057354
  0
VERTEX
  8
0
 10
735.198144
 20
605.867579
 42
-0.015071
  0
VERTEX
  8
0
 10
732.000000
 20
606.438971
 42
-0.019341
  0
VERTEX
  8
0
 10
728.021847
 20
607.436198
 42
-0.033532
  0
VERTEX
  8
0
 10
724.824210
 20
608.608249
 42
-0.038022
  0
VERTEX
  8
0
 10
722.584695
 20
609.815396
 42
-0.255452
  0
VERTEX
  8
0
 10
722.000000
 20
610.885145
 42
-0.127972
  0
VERTEX
  8
0
 10
722.130627
 20
611.387160
 42
-0.008717
  0
VERTEX
  8
0
 10
722.877313
 20
612.671677
 42
-0.012021
  0
VERTEX
  8
0
 10
723.842566
 20
614.184165
 42
-0.008711
  0
VERTEX
  8
0
 10
724.986596
 20
615.822800
 42
-0.055601
  0
VERTEX
  8
0
 10
727.760328
 20
618.872767
 42
-0.041539
  0
VERTEX
  8
0
 10
731.412066
 20
621.584147
 42
-0.040217
  0
VERTEX
  8
0
 10
735.606139
 20
623.742413
 42
-0.042999
  0
VERTEX
  8
0
 10
740.000000
 20
625.144678
 42
0.005082
  0
VERTEX
  8
0
 10
741.817414
 20
625.576246
 42
0.791223
  0
VERTEX
  8
0
 10
741.815976
 20
625.704092
 42
0.073721
  0
VERTEX
  8
0
 10
741.227413
 20
625.747513
 42
0.001557
  0
VERTEX
  8
0
 10
738.311962
 20
625.523606
 42
0.045758
  0
VERTEX
  8
0
 10
733.021069
 20
624.608760
 42
0.041868
  0
VERTEX
  8
0
 10
727.817657
 20
622.730830
 42
0.043160
  0
VERTEX
  8
0
 10
723.170439
 20
620.092738
 42
0.058443
  0
VERTEX
  8
0
 10
719.541307
 20
616.914041
 42
0.000000
  0
VERTEX
  8
0
 10
716.065899
 20
613.067181
 42
0.000000
  0
VERTEX
  8
0
 10
704.282949
 20
620.156565
 42
-0.002909
  0
VERTEX
  8
0
 10
694.131720
 20
626.344930
 42
-0.055399
  0
VERTEX
  8
0
 10
691.212071
 20
628.629489
 42
-0.277387
  0
VERTEX
  8
0
 10
690.770673
 20
630.322935
 42
-0.150616
  0
VERTEX
  8
0
 10
692.000000
 20
632.178271
 42
-0.047984
  0
VERTEX
  8
0
 10
696.445374
 20
635.159487
 42
-0.015706
  0
VERTEX
  8
0
 10
703.509593
 20
638.689765
 42
-0.015314
  0
VERTEX
  8
0
 10
710.715559
 20
641.748338
 42
-0.056176
  0
VERTEX
  8
0
 10
715.500000
 20
643.013659
 42
0.000000
  0
VERTEX
  8
0
 10
720.500000
 20
643.750488
 42
0.000000
  0
VERTEX
  8
0
 10
715.960099
 20
643.875244
 42
0.047398
  0
VERTEX
  8
0
 10
710.766418
 20
643.525432
 42
0.028522
  0
VERTEX
  8
0
 10
704.733614
 20
642.182685
 42
0.024196
  0
VERTEX
  8
0
 10
697.838126
 20
639.863759
 42
0.015124
  0
VERTEX
  8
0
 10
690.000000
 20
636.521697
 42
-0.012761
  0
VERTEX
  8
0
 10
682.745165
 20
633.387745
 42
-0.037669
  0
VERTEX
  8
0
 10
677.571389
 20
631.747846
 42
-0.050767
  0
VERTEX
  8
0
 10
673.149224
 20
631.168812
 42
-0.044430
  0
VERTEX
  8
0
 10
668.493326
 20
631.448730
 42
-0.048045
  0
VERTEX
  8
0
 10
665.237223
 20
632.262366
 42
-0.283153
  0
VERTEX
  8
0
 10
664.181085
 20
633.573609
 42
-0.161036
  0
VERTEX
  8
0
 10
664.599681
 20
635.713959
 42
-0.015618
  0
VERTEX
  8
0
 10
667.370625
 20
640.298037
 42
-0.021611
  0
VERTEX
  8
0
 10
670.165979
 20
644.228965
 42
-0.029905
  0
VERTEX
  8
0
 10
673.021993
 20
647.477699
 42
-0.028825
  0
VERTEX
  8
0
 10
676.327885
 20
650.449408
 42
-0.018139
  0
VERTEX
  8
0
 10
680.500000
 20
653.544759
 42
0.033050
  0
VERTEX
  8
0
 10
682.560785
 20
655.171086
 42
0.816402
  0
VERTEX
  8
0
 10
682.361558
 20
655.509009
 42
0.043557
  0
VERTEX
  8
0
 10
679.716182
 20
654.333047
 42
0.008270
  0
VERTEX
  8
0
 10
675.140205
 20
651.701463
 42
0.039137
  0
VERTEX
  8
0
 10
670.800220
 20
648.624856
 42
0.023822
  0
VERTEX
  8
0
 10
666.166100
 20
644.371851
 42
0.023413
  0
VERTEX
  8
0
 10
661.822497
 20
639.555213
 42
0.030613
  0
VERTEX
  8
0
 10
658.349919
 20
634.750000
 42
-0.026853
  0
VERTEX
  8
0
 10
657.094523
 20
632.985050
 42
-0.062175
  0
VERTEX
  8
0
 10
655.934534
 20
631.849739
 42
-0.081165
  0
VERTEX
  8
0
 10
654.746091
 20
631.218152
 42
-0.081809
  0
VERTEX
  8
0
 10
653.421714
 20
631.000000
 42
0.057355
  0
VERTEX
  8
0
 10
651.091150
 20
630.731780
 42
0.065134
  0
VERTEX
  8
0
 10
648.987312
 20
629.941683
 42
0.078505
  0
VERTEX
  8
0
 10
647.501642
 20
628.821561
 42
0.194416
  0
VERTEX
  8
0
 10
647.000000
 20
627.580201
 42
0.238741
  0
VERTEX
  8
0
 10
647.309856
 20
626.968251
 42
0.093495
  0
VERTEX
  8
0
 10
648.187937
 20
626.547405
 42
0.050163
  0
VERTEX
  8
0
 10
649.710110
 20
626.301374
 42
0.015002
  0
VERTEX
  8
0
 10
652.062727
 20
626.230769
 42
-0.072970
  0
VERTEX
  8
0
 10
656.515563
 20
625.577441
 42
-0.136304
  0
VERTEX
  8
0
 10
659.575120
 20
623.649420
 42
-0.076764
  0
VERTEX
  8
0
 10
662.257030
 20
619.594339
 42
-0.012461
  0
VERTEX
  8
0
 10
666.000000
 20
610.891715
 42
0.002742
  0
VERTEX
  8
0
 10
669.683314
 20
601.847439
 42
0.405456
  0
VERTEX
  8
0
 10
670.631017
 20
601.437603
 42
0.397521
  0
VERTEX
  8
0
 10
671.087811
 20
602.378849
 42
0.002734
  0
VERTEX
  8
0
 10
668.101878
 20
611.688242
 42
-0.004610
  0
VERTEX
  8
0
 10
666.914040
 20
615.439976
 42
-0.004655
  0
VERTEX
  8
0
 10
665.799561
 20
619.200809
 42
-0.004543
  0
VERTEX
  8
0
 10
664.889376
 20
622.493419
 42
-0.018794
  0
VERTEX
  8
0
 10
664.432789
 20
624.506572
 42
0.000000
  0
VERTEX
  8
0
 10
663.732240
 20
628.240823
 42
0.000000
  0
VERTEX
  8
0
 10
670.695253
 20
627.847378
 42
-0.016952
  0
VERTEX
  8
0
 10
673.739542
 20
627.571588
 42
-0.022674
  0
VERTEX
  8
0
 10
676.472886
 20
627.103551
 42
-0.025328
  0
VERTEX
  8
0
 10
678.726171
 20
626.490662
 42
-0.066051
  0
VERTEX
  8
0
 10
680.236709
 20
625.764472
 42
-0.076553
  0
VERTEX
  8
0
 10
681.668400
 20
624.475865
 42
-0.007341
  0
VERTEX
  8
0
 10
684.591617
 20
620.789592
 42
-0.009214
  0
VERTEX
  8
0
 10
687.949307
 20
616.254806
 42
-0.007147
  0
VERTEX
  8
0
 10
691.441137
 20
611.201144
 42
0.006879
  0
VERTEX
  8
0
 10
695.015492
 20
606.022106
 42
0.007562
  0
VERTEX
  8
0
 10
698.622155
 20
601.106219
 42
0.007116
  0
VERTEX
  8
0
 10
701.824479
 20
596.999833
 42
0.037519
  0
VERTEX
  8
0
 10
703.774070
 20
594.913638
 42
0.004767
  0
VERTEX
  8
0
 10
705.137026
 20
593.682332
 42
0.053695
  0
VERTEX
  8
0
 10
705.730294
 20
593.260694
 42
0.809923
  0
VERTEX
  8
0
 10
705.809826
 20
593.351400
 42
0.019314
  0
VERTEX
  8
0
 10
705.185399
 20
594.123112
 42
-0.058371
  0
VERTEX
  8
0
 10
703.004677
 20
597.294949
 42
-0.002261
  0
VERTEX
  8
0
 10
696.413543
 20
609.919166
 42
-0.000669
  0
VERTEX
  8
0
 10
689.437099
 20
623.474457
 42
-0.560925
  0
VERTEX
  8
0
 10
689.758165
 20
624.000000
 42
-0.126585
  0
VERTEX
  8
0
 10
689.990178
 20
623.940305
 42
-0.000222
  0
VERTEX
  8
0
 10
693.569042
 20
621.966048
 42
-0.001646
  0
VERTEX
  8
0
 10
697.586062
 20
619.730477
 42
-0.001016
  0
VERTEX
  8
0
 10
702.296777
 20
617.075909
 42
-0.010376
  0
VERTEX
  8
0
 10
708.657950
 20
613.297816
 42
-0.018735
  0
VERTEX
  8
0
 10
713.679410
 20
609.905322
 42
-0.020304
  0
VERTEX
  8
0
 10
718.152784
 20
606.345022
 42
-0.015120
  0
VERTEX
  8
0
 10
722.799537
 20
602.075909
 42
0.007463
  0
VERTEX
  8
0
 10
728.424169
 20
596.747290
 42
0.048480
  0
VERTEX
  8
0
 10
731.534172
 20
594.399846
 42
0.728963
  0
VERTEX
  8
0
 10
732.053167
 20
594.846043
 42
0.060572
  0
VERTEX
  8
0
 10
730.676372
 20
597.250000
 42
-0.008579
  0
VERTEX
  8
0
 10
729.664979
 20
598.654905
 42
-0.007034
  0
VERTEX
  8
0
 10
728.631631
 20
600.189154
 42
-0.007115
  0
VERTEX
  8
0
 10
727.721479
 20
601.626657
 42
-0.018593
  0
VERTEX
  8
0
 10
727.121445
 20
602.691799
 42
0.000000
  0
VERTEX
  8
0
 10
725.991928
 20
604.883599
 42
0.000000
  0
VERTEX
  8
0
 10
733.245964
 20
602.377350
 42
0.018288
  0
VERTEX
  8
0
 10
737.903343
 20
600.956602
 42
0.042940
  0
VERTEX
  8
0
 10
741.482749
 20
600.328576
 42
0.028698
  0
VERTEX
  8
0
 10
745.887565
 20
600.194276
 42
0.004589
  0
VERTEX
  8
0
 10
754.500000
 20
600.505140
 42
0.000000
  0
VERTEX
  8
0
 10
768.500000
 20
601.139180
 42
0.000000
  0
VERTEX
  8
0
 10
764.000000
 20
598.061460
 42
-0.030095
  0
VERTEX
  8
0
 10
760.227382
 20
595.801614
 42
-0.039387
  0
VERTEX
  8
0
 10
756.527796
 20
594.234009
 42
-0.041281
  0
VERTEX
  8
0
 10
752.775682
 20
593.317623
 42
-0.038895
  0
VERTEX
  8
0
 10
748.847825
 20
593.005577
 42
0.028328
  0
VERTEX
  8
0
 10
746.816890
 20
592.887307
 42
0.114074
  0
VERTEX
  8
0
 10
745.654030
 20
592.473373
 42
0.127761
  0
VERTEX
  8
0
 10
744.861925
 20
591.618849
 42
0.039504
  0
VERTEX
  8
0
 10
744.149845
 20
590.000000
 42
0.000000
  0
VERTEX
  8
0
 10
743.104039
 20
587.000000
 42
0.000000
  0
VERTEX
  8
0
 10
734.743149
 20
587.000000
 42
-0.010623
  0
VERTEX
  8
0
 10
730.834939
 20
587.083040
 42
-0.024773
  0
VERTEX
  8
0
 10
727.921146
 20
587.351943
 42
-0.032770
  0
VERTEX
  8
0
 10
725.790321
 20
587.799610
 42
-0.094017
  0
VERTEX
  8
0
 10
724.441130
 20
588.468197
 42
0.046870
  0
VERTEX
  8
0
 10
723.527988
 20
589.032946
 42
0.030619
  0
VERTEX
  8
0
 10
722.385929
 20
589.514453
 42
0.030748
  0
VERTEX
  8
0
 10
721.203856
 20
589.849636
 42
0.050336
  0
VERTEX
  8
0
 10
720.170545
 20
589.968197
 42
0.041455
  0
VERTEX
  8
0
 10
718.899100
 20
589.880059
 42
0.225510
  0
VERTEX
  8
0
 10
718.342886
 20
589.503056
 42
0.167119
  0
VERTEX
  8
0
 10
718.189532
 20
588.747890
 42
0.021347
  0
VERTEX
  8
0
 10
718.479695
 20
587.092447
 42
-0.030291
  0
VERTEX
  8
0
 10
718.743799
 20
585.409281
 42
-0.173229
  0
VERTEX
  8
0
 10
718.525305
 20
584.546311
 42
-0.165362
  0
VERTEX
  8
0
 10
717.802745
 20
583.994724
 42
-0.027018
  0
VERTEX
  8
0
 10
716.080913
 20
583.517772
 42
-0.081323
  0
VERTEX
  8
0
 10
709.525064
 20
583.163966
 42
-0.039543
  0
VERTEX
  8
0
 10
701.262575
 20
584.730897
 42
-0.038893
  0
VERTEX
  8
0
 10
693.013685
 20
587.687965
 42
-0.057567
  0
VERTEX
  8
0
 10
686.418109
 20
591.614371
 42
0.022698
  0
VERTEX
  8
0
 10
683.492559
 20
593.644240
 42
0.103968
  0
VERTEX
  8
0
 10
681.564065
 20
594.356950
 42
0.270134
  0
VERTEX
  8
0
 10
680.465340
 20
593.917002
 42
0.167094
  0
VERTEX
  8
0
 10
680.000000
 20
592.563428
 42
-0.090627
  0
VERTEX
  8
0
 10
679.891030
 20
591.967166
 42
-0.042950
  0
VERTEX
  8
0
 10
679.551856
 20
591.260284
 42
-0.040683
  0
VERTEX
  8
0
 10
679.058132
 20
590.560658
 42
-0.045584
  0
VERTEX
  8
0
 10
678.474405
 20
589.978758
 42
-0.251653
  0
VERTEX
  8
0
 10
675.917849
 20
589.461432
 42
-0.087227
  0
VERTEX
  8
0
 10
672.446389
 20
591.213582
 42
-0.051713
  0
VERTEX
  8
0
 10
668.108681
 20
595.212423
 42
-0.019536
  0
VERTEX
  8
0
 10
662.892863
 20
601.614781
 42
0.018931
  0
VERTEX
  8
0
 10
656.376209
 20
609.633696
 42
0.027244
  0
VERTEX
  8
0
 10
649.979119
 20
616.168546
 42
0.024608
  0
VERTEX
  8
0
 10
644.497723
 20
620.714415
 42
0.373196
  0
VERTEX
  8
0
 10
642.218792
 20
620.551852
 42
0.191238
  0
VERTEX
  8
0
 10
641.925534
 20
619.872101
 42
0.000804
  0
VERTEX
  8
0
 10
641.696355
 20
611.623259
 42
0.003761
  0
VERTEX
  8
0
 10
641.520766
 20
602.207756
 42
0.002342
  0
VERTEX
  8
0
 10
641.449650
 20
591.166393
 42
-0.006705
  0
VERTEX
  8
0
 10
641.128752
 20
570.010631
 42
-0.019918
  0
VERTEX
  8
0
 10
640.137301
 20
555.540316
 42
-0.015108
  0
VERTEX
  8
0
 10
637.863273
 20
539.220941
 42
-0.002612
  0
VERTEX
  8
0
 10
632.466690
 20
508.500000
 42
0.007976
  0
VERTEX
  8
0
 10
627.083965
 20
475.803352
 42
0.014234
  0
VERTEX
  8
0
 10
623.855379
 20
448.742273
 42
0.015651
  0
VERTEX
  8
0
 10
622.358337
 20
423.390344
 42
0.012626
  0
VERTEX
  8
0
 10
622.291973
 20
396.105277
 42
0.012112
  0
VERTEX
  8
0
 10
623.407150
 20
372.416483
 42
0.015746
  0
VERTEX
  8
0
 10
625.635321
 20
350.808220
 42
0.011453
  0
VERTEX
  8
0
 10
629.775347
 20
324.680624
 42
0.003297
  0
VERTEX
  8
0
 10
637.368942
 20
284.469620
 42
-0.000612
  0
VERTEX
  8
0
 10
639.891425
 20
271.494606
 42
-0.000834
  0
VERTEX
  8
0
 10
642.131926
 20
259.789513
 42
-0.000545
  0
VERTEX
  8
0
 10
643.986915
 20
249.951631
 42
-0.009570
  0
VERTEX
  8
0
 10
644.523775
 20
246.750000
 42
0.020482
  0
VERTEX
  8
0
 10
645.122869
 20
243.600219
 42
0.143203
  0
VERTEX
  8
0
 10
645.883424
 20
242.251278
 42
0.459820
  0
VERTEX
  8
0
 10
646.682843
 20
242.322652
 42
0.078269
  0
VERTEX
  8
0
 10
647.462932
 20
243.883208
 42
0.093716
  0
VERTEX
  8
0
 10
647.854205
 20
247.116053
 42
0.003164
  0
VERTEX
  8
0
 10
646.916426
 20
259.980343
 42
0.006348
  0
VERTEX
  8
0
 10
645.603855
 20
274.239395
 42
0.006296
  0
VERTEX
  8
0
 10
643.926525
 20
288.500000
 42
-0.000041
  0
VERTEX
  8
0
 10
643.035906
 20
295.334026
 42
-0.000024
  0
VERTEX
  8
0
 10
641.969697
 20
303.523808
 42
-0.000024
  0
VERTEX
  8
0
 10
640.903292
 20
311.721295
 42
-0.000041
  0
VERTEX
  8
0
 10
640.011824
 20
318.581050
 42
-0.005220
  0
VERTEX
  8
0
 10
639.177999
 20
325.572035
 42
-0.002814
  0
VERTEX
  8
0
 10
638.289057
 20
334.201983
 42
-0.002801
  0
VERTEX
  8
0
 10
637.481906
 20
343.006906
 42
-0.004402
  0
VERTEX
  8
0
 10
636.897483
 20
350.581050
 42
-0.015242
  0
VERTEX
  8
0
 10
636.187280
 20
369.399850
 42
-0.006340
  0
VERTEX
  8
0
 10
636.325629
 20
394.829260
 42
-0.006287
  0
VERTEX
  8
0
 10
637.100047
 20
420.051456
 42
-0.016813
  0
VERTEX
  8
0
 10
638.481284
 20
437.979352
 42
-0.013469
  0
VERTEX
  8
0
 10
642.386172
 20
466.209425
 42
-0.005303
  0
VERTEX
  8
0
 10
649.219629
 20
504.859638
 42
-0.005366
  0
VERTEX
  8
0
 10
657.055239
 20
544.255421
 42
-0.010428
  0
VERTEX
  8
0
 10
664.302403
 20
575.500000
 42
-0.009204
  0
VERTEX
  8
0
 10
666.806258
 20
584.647275
 42
-0.098331
  0
VERTEX
  8
0
 10
668.582187
 20
588.045057
 42
-0.295448
  0
VERTEX
  8
0
 10
670.710590
 20
588.747065
 42
-0.101904
  0
VERTEX
  8
0
 10
673.753146
 20
587.243178
 42
0.000000
  0
VERTEX
  8
0
 10
676.006292
 20
585.486651
 42
0.000000
  0
VERTEX
  8
0
 10
670.927362
 20
563.993325
 42
0.010196
  0
VERTEX
  8
0
 10
660.084783
 20
513.532696
 42
0.011437
  0
VERTEX
  8
0
 10
651.759841
 20
464.562150
 42
0.012324
  0
VERTEX
  8
0
 10
646.424623
 20
420.637095
 42
0.025353
  0
VERTEX
  8
0
 10
644.848645
 20
386.045403
 42
0.009080
  0
VERTEX
  8
0
 10
645.185164
 20
371.621106
 42
0.010769
  0
VERTEX
  8
0
 10
646.043542
 20
358.018628
 42
0.007237
  0
VERTEX
  8
0
 10
647.760489
 20
340.737879
 42
0.001797
  0
VERTEX
  8
0
 10
651.082317
 20
312.500000
 42
-0.001394
  0
VERTEX
  8
0
 10
652.659271
 20
299.187398
 42
-0.001604
  0
VERTEX
  8
0
 10
654.087716
 20
286.476563
 42
-0.001438
  0
VERTEX
  8
0
 10
655.232883
 20
275.695725
 42
-0.009315
  0
VERTEX
  8
0
 10
655.693152
 20
270.250000
 42
0.007303
  0
VERTEX
  8
0
 10
656.050884
 20
265.804294
 42
0.028423
  0
VERTEX
  8
0
 10
656.467941
 20
263.076761
 42
0.046558
  0
VERTEX
  8
0
 10
656.973534
 20
261.451591
 42
0.302812
  0
VERTEX
  8
0
 10
657.650823
 20
261.000000
 42
0.039506
  0
VERTEX
  8
0
 10
658.167438
 20
261.040883
 42
0.058710
  0
VERTEX
  8
0
 10
658.603679
 20
261.164076
 42
0.077211
  0
VERTEX
  8
0
 10
658.900654
 20
261.344779
 42
0.221009
  0
VERTEX
  8
0
 10
659.000000
 20
261.558557
 42
0.023275
  0
VERTEX
  8
0
 10
658.978872
 20
262.012196
 42
0.000008
  0
VERTEX
  8
0
 10
657.384375
 20
279.089795
 42
0.000138
  0
VERTEX
  8
0
 10
655.608788
 20
298.047140
 42
0.000084
  0
VERTEX
  8
0
 10
653.500000
 20
320.455012
 42
-0.000971
  0
VERTEX
  8
0
 10
651.392855
 20
343.279522
 42
-0.001381
  0
VERTEX
  8
0
 10
649.615625
 20
363.572843
 42
-0.000765
  0
VERTEX
  8
0
 10
648.187056
 20
380.731915
 42
-0.020386
  0
VERTEX
  8
0
 10
648.000000
 20
385.317814
 42
-0.020323
  0
VERTEX
  8
0
 10
648.692176
 20
402.339918
 42
-0.006240
  0
VERTEX
  8
0
 10
651.100382
 20
427.949077
 42
-0.006413
  0
VERTEX
  8
0
 10
654.397882
 20
455.512522
 42
-0.009019
  0
VERTEX
  8
0
 10
658.097090
 20
480.000000
 42
-0.007559
  0
VERTEX
  8
0
 10
663.136090
 20
507.214106
 42
-0.004090
  0
VERTEX
  8
0
 10
670.116129
 20
540.552977
 42
-0.002226
  0
VERTEX
  8
0
 10
677.301692
 20
572.835185
 42
-0.046284
  0
VERTEX
  8
0
 10
680.378675
 20
582.247206
 42
-0.024669
  0
VERTEX
  8
0
 10
682.510426
 20
586.573813
 42
-0.210432
  0
VERTEX
  8
0
 10
684.193504
 20
587.850272
 42
-0.164334
  0
VERTEX
  8
0
 10
686.511073
 20
587.637134
 42
-0.013882
  0
VERTEX
  8
0
 10
692.000000
 20
585.017928
 42
-0.002955
  0
VERTEX
  8
0
 10
696.987936
 20
582.428147
 42
-0.079931
  0
VERTEX
  8
0
 10
698.173831
 20
581.537192
 42
-0.455043
  0
VERTEX
  8
0
 10
698.114896
 20
580.862545
 42
-0.065108
  0
VERTEX
  8
0
 10
696.732067
 20
580.107910
 42
0.057242
  0
VERTEX
  8
0
 10
695.602982
 20
579.514520
 42
0.041556
  0
VERTEX
  8
0
 10
694.499206
 20
578.619559
 42
0.042193
  0
VERTEX
  8
0
 10
693.582015
 20
577.578220
 42
0.068717
  0
VERTEX
  8
0
 10
693.017721
 20
576.546609
 42
0.026173
  0
VERTEX
  8
0
 10
690.401772
 20
568.407786
 42
0.000554
  0
VERTEX
  8
0
 10
679.654544
 20
527.604812
 42
0.000243
  0
VERTEX
  8
0
 10
668.487757
 20
484.932617
 42
0.063952
  0
VERTEX
  8
0
 10
668.000000
 20
481.134771
 42
0.082452
  0
VERTEX
  8
0
 10
668.375093
 20
478.875630
 42
0.076634
  0
VERTEX
  8
0
 10
669.463518
 20
476.795307
 42
0.092628
  0
VERTEX
  8
0
 10
670.908424
 20
475.446367
 42
0.225742
  0
VERTEX
  8
0
 10
672.319001
 20
475.273000
 42
0.244555
  0
VERTEX
  8
0
 10
672.861788
 20
475.833494
 42
0.001781
  0
VERTEX
  8
0
 10
674.753771
 20
482.265245
 42
0.006145
  0
VERTEX
  8
0
 10
676.827273
 20
489.750333
 42
0.003834
  0
VERTEX
  8
0
 10
679.081355
 20
498.567643
 42
-0.003954
  0
VERTEX
  8
0
 10
684.477110
 20
519.653220
 42
-0.006062
  0
VERTEX
  8
0
 10
689.517206
 20
537.825289
 42
-0.006644
  0
VERTEX
  8
0
 10
694.612127
 20
554.534283
 42
-0.006594
  0
VERTEX
  8
0
 10
700.161717
 20
571.144805
 42
0.000000
  0
VERTEX
  8
0
 10
703.177250
 20
579.789611
 42
0.000000
  0
VERTEX
  8
0
 10
712.478271
 20
579.644805
 42
0.007612
  0
VERTEX
  8
0
 10
717.294744
 20
579.643147
 42
0.029652
  0
VERTEX
  8
0
 10
720.265155
 20
579.863853
 42
0.049504
  0
VERTEX
  8
0
 10
722.249234
 20
580.333392
 42
0.098364
  0
VERTEX
  8
0
 10
723.639646
 20
581.143214
 42
-0.102740
  0
VERTEX
  8
0
 10
725.058781
 20
581.953380
 42
-0.036767
  0
VERTEX
  8
0
 10
727.333400
 20
582.511162
 42
-0.024515
  0
VERTEX
  8
0
 10
730.672422
 20
582.906843
 42
-0.007676
  0
VERTEX
  8
0
 10
735.705142
 20
583.176758
 42
0.006633
  0
VERTEX
  8
0
 10
741.331888
 20
583.466771
 42
0.033013
  0
VERTEX
  8
0
 10
744.467625
 20
583.879171
 42
0.059755
  0
VERTEX
  8
0
 10
746.539070
 20
584.556753
 42
0.076636
  0
VERTEX
  8
0
 10
748.205142
 20
585.668609
 42
-0.027407
  0
VERTEX
  8
0
 10
749.247362
 20
586.522938
 42
-0.020403
  0
VERTEX
  8
0
 10
750.482660
 20
587.351919
 42
-0.020756
  0
VERTEX
  8
0
 10
751.715438
 20
588.039453
 42
-0.043247
  0
VERTEX
  8
0
 10
752.735830
 20
588.447955
 42
0.027806
  0
VERTEX
  8
0
 10
754.123296
 20
588.954350
 42
0.002693
  0
VERTEX
  8
0
 10
757.407122
 20
590.385273
 42
0.003414
  0
VERTEX
  8
0
 10
761.303765
 20
592.140168
 42
0.002692
  0
VERTEX
  8
0
 10
765.498425
 20
594.091238
 42
0.000000
  0
VERTEX
  8
0
 10
776.025190
 20
599.056696
 42
0.000000
  0
VERTEX
  8
0
 10
772.405364
 20
604.778348
 42
0.015683
  0
VERTEX
  8
0
 10
769.238666
 20
609.452624
 42
0.028017
  0
VERTEX
  8
0
 10
766.310409
 20
613.052861
 42
0.032852
  0
VERTEX
  8
0
 10
763.371645
 20
615.881275
 42
0.036611
  0
VERTEX
  8
0
 10
760.187256
 20
618.190386
 42
-0.028327
  0
VERTEX
  8
0
 10
758.517991
 20
619.359170
 42
-0.086198
  0
VERTEX
  8
0
 10
757.596532
 20
620.386052
 42
-0.107344
  0
VERTEX
  8
0
 10
757.185892
 20
621.526912
 42
-0.059105
  0
VERTEX
  8
0
 10
757.165690
 20
623.016607
 42
0.112465
  0
VERTEX
  8
0
 10
756.955203
 20
624.769936
 42
0.088094
  0
VERTEX
  8
0
 10
756.001832
 20
626.438117
 42
0.042208
  0
VERTEX
  8
0
 10
753.911320
 20
628.554265
 42
0.006910
  0
VERTEX
  8
0
 10
749.478434
 20
632.237578
 42
-0.005191
  0
VERTEX
  8
0
 10
743.462241
 20
637.201607
 42
-0.032940
  0
VERTEX
  8
0
 10
740.605878
 20
639.949825
 42
-0.068916
  0
VERTEX
  8
0
 10
739.175111
 20
642.035702
 42
-0.103057
  0
VERTEX
  8
0
 10
738.612600
 20
644.165515
 42
0.172108
  0
VERTEX
  8
0
 10
738.060957
 20
645.493525
 42
0.040481
  0
VERTEX
  8
0
 10
736.282792
 20
647.167747
 42
0.026342
  0
VERTEX
  8
0
 10
733.266952
 20
649.328578
 42
0.007381
  0
VERTEX
  8
0
 10
728.335426
 20
652.381209
 42
-0.006413
  0
VERTEX
  8
0
 10
724.468575
 20
654.764453
 42
-0.010676
  0
VERTEX
  8
0
 10
721.281846
 20
656.882098
 42
-0.004505
  0
VERTEX
  8
0
 10
718.682340
 20
658.725678
 42
-0.393189
  0
VERTEX
  8
0
 10
718.596894
 20
659.156778
 42
-0.144098
  0
VERTEX
  8
0
 10
718.940172
 20
659.464600
 42
-0.019539
  0
VERTEX
  8
0
 10
719.837500
 20
659.850026
 42
-0.021186
  0
VERTEX
  8
0
 10
720.965794
 20
660.229272
 42
-0.016424
  0
VERTEX
  8
0
 10
722.221962
 20
660.548751
 42
0.033966
  0
VERTEX
  8
0
 10
723.647016
 20
660.964881
 42
0.019851
  0
VERTEX
  8
0
 10
725.291937
 20
661.644328
 42
0.019791
  0
VERTEX
  8
0
 10
726.891646
 20
662.458911
 42
0.031529
  0
VERTEX
  8
0
 10
728.180693
 20
663.291713
 42
-0.042935
  0
VERTEX
  8
0
 10
730.003585
 20
664.411401
 42
-0.097771
  0
VERTEX
  8
0
 10
731.553879
 20
664.840597
 42
-0.057642
  0
VERTEX
  8
0
 10
733.616706
 20
664.758047
 42
-0.007835
  0
VERTEX
  8
0
 10
737.882069
 20
664.022252
 42
0.009424
  0
VERTEX
  8
0
 10
742.081587
 20
663.311543
 42
0.053034
  0
VERTEX
  8
0
 10
744.351986
 20
663.214238
 42
0.074665
  0
VERTEX
  8
0
 10
746.233598
 20
663.619600
 42
0.029345
  0
VERTEX
  8
0
 10
748.661870
 20
664.703760
 42
0.069513
  0
VERTEX
  8
0
 10
751.997173
 20
667.071772
 42
0.079142
  0
VERTEX
  8
0
 10
754.386566
 20
670.171898
 42
0.068048
  0
VERTEX
  8
0
 10
755.934593
 20
674.249887
 42
0.036721
  0
VERTEX
  8
0
 10
756.757618
 20
679.569197
 42
-0.008561
  0
VERTEX
  8
0
 10
757.095118
 20
683.029782
 42
-0.056422
  0
VERTEX
  8
0
 10
757.486208
 20
684.722459
 42
-0.161415
  0
VERTEX
  8
0
 10
758.062263
 20
685.464919
 42
-0.219021
  0
VERTEX
  8
0
 10
758.888784
 20
685.597996
 42
0.009332
  0
VERTEX
  8
0
 10
759.730749
 20
685.380377
 42
0.002836
  0
VERTEX
  8
0
 10
761.014407
 20
685.081718
 42
0.002839
  0
VERTEX
  8
0
 10
762.456912
 20
684.763311
 42
0.003092
  0
VERTEX
  8
0
 10
763.862390
 20
684.470517
 42
-0.058193
  0
VERTEX
  8
0
 10
765.436493
 20
683.956801
 42
-0.023989
  0
VERTEX
  8
0
 10
767.429280
 20
682.920145
 42
-0.023343
  0
VERTEX
  8
0
 10
769.482729
 20
681.591381
 42
-0.027727
  0
VERTEX
  8
0
 10
771.283341
 20
680.145860
 42
0.016213
  0
VERTEX
  8
0
 10
774.128420
 20
677.752115
 42
0.624110
  0
VERTEX
  8
0
 10
774.708682
 20
678.031615
 42
0.087484
  0
VERTEX
  8
0
 10
774.424487
 20
679.701928
 42
0.001564
  0
VERTEX
  8
0
 10
771.332066
 20
688.275096
 42
-0.005982
  0
VERTEX
  8
0
 10
769.794272
 20
692.659344
 42
-0.043164
  0
VERTEX
  8
0
 10
769.264689
 20
694.831807
 42
-0.111338
  0
VERTEX
  8
0
 10
769.352302
 20
696.100820
 42
-0.190539
  0
VERTEX
  8
0
 10
770.000000
 20
696.922978
 42
0.018585
  0
VERTEX
  8
0
 10
776.308175
 20
700.914343
 42
0.066302
  0
VERTEX
  8
0
 10
779.848488
 20
704.106394
 42
0.092828
  0
VERTEX
  8
0
 10
781.788425
 20
707.498146
 42
0.061232
  0
VERTEX
  8
0
 10
782.736798
 20
711.902090
 42
0.031036
  0
VERTEX
  8
0
 10
782.805163
 20
714.365614
 42
0.044670
  0
VERTEX
  8
0
 10
782.536399
 20
716.529200
 42
0.041945
  0
VERTEX
  8
0
 10
781.870004
 20
718.708850
 42
0.023480
  0
VERTEX
  8
0
 10
780.719947
 20
721.233119
 42
0.000000
  0
VERTEX
  8
0
 10
778.289112
 20
725.966238
 42
0.000000
  0
VERTEX
  8
0
 10
780.657538
 20
730.751957
 42
0.019422
  0
VERTEX
  8
0
 10
781.910905
 20
733.553211
 42
0.058772
  0
VERTEX
  8
0
 10
782.456229
 20
735.566893
 42
0.060952
  0
VERTEX
  8
0
 10
782.507976
 20
737.611564
 42
0.022064
  0
VERTEX
  8
0
 10
782.100337
 20
740.492315
 42
0.030887
  0
VERTEX
  8
0
 10
781.435760
 20
743.134138
 42
0.052900
  0
VERTEX
  8
0
 10
780.522691
 20
745.212706
 42
0.050209
  0
VERTEX
  8
0
 10
779.157729
 20
747.124915
 42
0.024977
  0
VERTEX
  8
0
 10
777.082632
 20
749.264002
 42
-0.009912
  0
VERTEX
  8
0
 10
774.562862
 20
751.709602
 42
-0.098632
  0
VERTEX
  8
0
 10
773.755406
 20
752.931663
 42
-0.172244
  0
VERTEX
  8
0
 10
773.702142
 20
754.085886
 42
-0.045588
  0
VERTEX
  8
0
 10
774.407955
 20
755.822005
 42
-0.045884
  0
VERTEX
  8
0
 10
775.277961
 20
757.182466
 42
-0.013050
  0
VERTEX
  8
0
 10
776.870648
 20
759.125008
 42
-0.013027
  0
VERTEX
  8
0
 10
778.792318
 20
761.234215
 42
-0.013454
  0
VERTEX
  8
0
 10
780.801194
 20
763.217271
 42
0.016002
  0
VERTEX
  8
0
 10
784.335286
 20
766.741675
 42
0.352019
  0
VERTEX
  8
0
 10
784.441117
 20
768.098804
 42
0.237961
  0
VERTEX
  8
0
 10
783.016529
 20
768.885299
 42
0.009303
  0
VERTEX
  8
0
 10
776.852471
 20
769.000000
 42
-0.022546
  0
VERTEX
  8
0
 10
771.429954
 20
769.244638
 42
-0.121652
  0
VERTEX
  8
0
 10
768.662086
 20
770.199769
 42
-0.207222
  0
VERTEX
  8
0
 10
767.434067
 20
772.042844
 42
-0.084612
  0
VERTEX
  8
0
 10
767.402542
 20
775.115894
 42
0.070892
  0
VERTEX
  8
0
 10
767.461518
 20
778.581100
 42
0.077872
  0
VERTEX
  8
0
 10
766.533954
 20
781.807295
 42
0.061246
  0
VERTEX
  8
0
 10
764.437139
 20
785.168709
 42
0.026339
  0
VERTEX
  8
0
 10
760.895666
 20
789.104334
 42
-0.019020
  0
VERTEX
  8
0
 10
759.166997
 20
790.969771
 42
-0.042309
  0
VERTEX
  8
0
 10
758.035143
 20
792.539348
 42
-0.058720
  0
VERTEX
  8
0
 10
757.450694
 20
793.838001
 42
-0.154440
  0
VERTEX
  8
0
 10
757.451575
 20
794.847427
 42
-0.125266
  0
VERTEX
  8
0
 10
758.058481
 20
795.822887
 42
-0.009696
  0
VERTEX
  8
0
 10
760.338827
 20
797.928614
 42
-0.012782
  0
VERTEX
  8
0
 10
763.207640
 20
800.348187
 42
-0.009402
  0
VERTEX
  8
0
 10
766.502728
 20
802.885977
 42
0.006464
  0
VERTEX
  8
0
 10
769.759417
 20
805.363851
 42
0.009964
  0
VERTEX
  8
0
 10
772.503926
 20
807.598111
 42
0.004780
  0
VERTEX
  8
0
 10
774.752422
 20
809.541561
 42
0.215360
  0
VERTEX
  8
0
 10
775.000000
 20
810.089703
 42
0.302434
  0
VERTEX
  8
0
 10
774.765026
 20
810.442644
 42
0.040746
  0
VERTEX
  8
0
 10
773.873958
 20
810.732600
 42
0.035907
  0
VERTEX
  8
0
 10
772.635815
 20
810.934149
 42
0.022400
  0
VERTEX
  8
0
 10
771.166667
 20
811.000000
 42
-0.015128
  0
VERTEX
  8
0
 10
769.652867
 20
811.045811
 42
-0.019780
  0
VERTEX
  8
0
 10
768.275257
 20
811.184118
 42
-0.017704
  0
VERTEX
  8
0
 10
767.157168
 20
811.381830
 42
-0.144741
  0
VERTEX
  8
0
 10
766.706549
 20
811.626784
 42
-0.297433
  0
VERTEX
  8
0
 10
766.476044
 20
812.723302
 42
-0.036073
  0
VERTEX
  8
0
 10
767.584553
 20
815.059013
 42
-0.037426
  0
VERTEX
  8
0
 10
769.319808
 20
817.650402
 42
-0.038652
  0
VERTEX
  8
0
 10
771.404986
 20
819.924314
 42
0.018629
  0
VERTEX
  8
0
 10
773.424966
 20
821.957497
 42
0.188707
  0
VERTEX
  8
0
 10
773.850072
 20
823.047498
 42
0.327293
  0
VERTEX
  8
0
 10
773.319969
 20
823.768814
 42
0.045859
  0
VERTEX
  8
0
 10
771.400021
 20
824.183578
 42
-0.070807
  0
VERTEX
  8
0
 10
770.076955
 20
824.539064
 42
-0.101344
  0
VERTEX
  8
0
 10
769.081198
 20
825.228902
 42
-0.079188
  0
VERTEX
  8
0
 10
768.276809
 20
826.392428
 42
-0.029356
  0
VERTEX
  8
0
 10
767.520981
 20
828.240919
 42
0.027592
  0
VERTEX
  8
0
 10
766.071401
 20
831.822074
 42
0.050838
  0
VERTEX
  8
0
 10
764.453493
 20
834.512737
 42
0.056532
  0
VERTEX
  8
0
 10
762.457197
 20
836.630383
 42
0.044092
  0
VERTEX
  8
0
 10
759.870406
 20
838.453074
 42
0.000000
  0
VERTEX
  8
0
 10
756.503862
 20
840.406148
 42
0.000000
  0
VERTEX
  8
0
 10
758.100306
 20
837.953074
 42
-0.024777
  0
VERTEX
  8
0
 10
758.796298
 20
836.758064
 42
-0.011934
  0
VERTEX
  8
0
 10
759.573751
 20
835.164825
 42
-0.011802
  0
VERTEX
  8
0
 10
760.307105
 20
833.461276
 42
-0.016564
  0
VERTEX
  8
0
 10
760.874474
 20
831.905904
 42
-0.081059
  0
VERTEX
  8
0
 10
761.294223
 20
829.217675
 42
-0.055783
  0
VERTEX
  8
0
 10
760.929496
 20
826.149575
 42
-0.023541
  0
VERTEX
  8
0
 10
759.557446
 20
821.320816
 42
-0.002669
  0
VERTEX
  8
0
 10
755.883944
 20
810.569969
 42
-0.005823
  0
VERTEX
  8
0
 10
752.027540
 20
799.880742
 42
-0.035915
  0
VERTEX
  8
0
 10
749.593507
 20
794.569075
 42
-0.111276
  0
VERTEX
  8
0
 10
747.726212
 20
792.453445
 42
-0.378082
  0
VERTEX
  8
0
 10
746.041611
 20
792.617217
 42
-0.211603
  0
VERTEX
  8
0
 10
745.778839
 20
793.374753
 42
-0.004607
  0
VERTEX
  8
0
 10
746.147406
 20
797.353183
 42
-0.009717
  0
VERTEX
  8
0
 10
746.721127
 20
802.070484
 42
-0.006308
  0
VERTEX
  8
0
 10
747.558809
 20
807.500000
 42
0.010513
  0
VERTEX
  8
0
 10
749.968859
 20
824.043040
 42
0.014991
  0
VERTEX
  8
0
 10
751.357087
 20
838.821803
 42
0.016745
  0
VERTEX
  8
0
 10
751.760550
 20
852.181523
 42
0.021698
  0
VERTEX
  8
0
 10
751.188568
 20
864.424179
 42
0.052585
  0
VERTEX
  8
0
 10
744.788257
 20
896.803789
 42
0.084780
  0
VERTEX
  8
0
 10
732.104167
 20
921.812628
 42
0.090954
  0
VERTEX
  8
0
 10
712.594678
 20
940.018713
 42
0.069452
  0
VERTEX
  8
0
 10
686.008438
 20
952.236303
 42
0.031236
  0
VERTEX
  8
0
 10
681.665427
 20
953.251503
 42
0.019798
  0
VERTEX
  8
0
 10
676.507819
 20
953.913153
 42
0.012541
  0
VERTEX
  8
0
 10
669.303964
 20
954.367007
 42
0.003323
  0
VERTEX
  8
0
 10
657.783435
 20
954.726485
 42
0.014565
  0
VERTEX
  8
0
 10
634.923873
 20
954.621789
 42
0.019371
  0
VERTEX
  8
0
 10
614.199191
 20
953.117748
 42
0.018937
  0
VERTEX
  8
0
 10
593.287913
 20
949.977571
 42
0.012996
  0
VERTEX
  8
0
 10
569.838578
 20
944.908033
 42
0.006847
  0
VERTEX
  8
0
 10
556.331150
 20
941.421607
 42
0.066736
  0
VERTEX
  8
0
 10
550.906717
 20
939.130972
 42
0.600149
  0
VERTEX
  8
0
 10
550.977315
 20
937.494050
 42
0.083794
  0
VERTEX
  8
0
 10
555.208270
 20
936.279993
 42
0.054074
  0
VERTEX
  8
0
 10
558.151748
 20
936.267636
 42
0.006656
  0
VERTEX
  8
0
 10
564.545001
 20
937.020098
 42
0.007114
  0
VERTEX
  8
0
 10
572.688613
 20
938.206756
 42
0.004043
  0
VERTEX
  8
0
 10
582.507667
 20
939.862076
 42
-0.003601
  0
VERTEX
  8
0
 10
607.037515
 20
944.019673
 42
-0.013646
  0
VERTEX
  8
0
 10
622.455625
 20
946.088801
 42
-0.017194
  0
VERTEX
  8
0
 10
636.115397
 20
947.070300
 42
-0.008508
  0
VERTEX
  8
0
 10
653.500000
 20
947.423776
 42
-0.002466
  0
VERTEX
  8
0
 10
667.287574
 20
947.401456
 42
-0.016318
  0
VERTEX
  8
0
 10
674.170623
 20
947.131608
 42
-0.029675
  0
VERTEX
  8
0
 10
679.137511
 20
946.476435
 42
-0.022838
  0
VERTEX
  8
0
 10
684.454933
 20
945.196838
 42
-0.058267
  0
VERTEX
  8
0
 10
700.714315
 20
938.356535
 42
-0.061041
  0
VERTEX
  8
0
 10
714.678325
 20
928.034303
 42
-0.058394
  0
VERTEX
  8
0
 10
726.221847
 20
914.207856
 42
-0.046391
  0
VERTEX
  8
0
 10
735.318315
 20
897.000000
 42
-0.050013
  0
VERTEX
  8
0
 10
740.537448
 20
879.738872
 42
-0.032970
  0
VERTEX
  8
0
 10
743.181896
 20
859.153636
 42
-0.030709
  0
VERTEX
  8
0
 10
743.191988
 20
836.646180
 42
-0.027932
  0
VERTEX
  8
0
 10
740.484640
 20
813.572262
 42
-0.007780
  0
VERTEX
  8
0
 10
739.053690
 20
806.059252
 42
-0.050276
  0
VERTEX
  8
0
 10
737.899098
 20
802.382005
 42
-0.129179
  0
VERTEX
  8
0
 10
736.551774
 20
800.651853
 42
-0.200970
  0
VERTEX
  8
0
 10
734.748388
 20
800.180660
 42
-0.209079
  0
VERTEX
  8
0
 10
733.293341
 20
801.079390
 42
-0.143083
  0
VERTEX
  8
0
 10
732.671869
 20
802.948272
 42
-0.029541
  0
VERTEX
  8
0
 10
732.764647
 20
807.114034
 42
-0.001332
  0
VERTEX
  8
0
 10
733.967294
 20
821.398231
 42
0.015802
  0
VERTEX
  8
0
 10
734.891294
 20
838.163746
 42
0.015636
  0
VERTEX
  8
0
 10
734.759631
 20
855.013641
 42
0.016447
  0
VERTEX
  8
0
 10
733.666654
 20
870.173101
 42
0.037087
  0
VERTEX
  8
0
 10
731.617150
 20
881.500000
 42
0.043009
  0
VERTEX
  8
0
 10
725.941501
 20
897.590438
 42
0.056178
  0
VERTEX
  8
0
 10
717.960276
 20
910.986671
 42
0.058895
  0
VERTEX
  8
0
 10
707.544388
 20
921.788631
 42
0.054669
  0
VERTEX
  8
0
 10
694.645939
 20
930.178729
 42
0.056839
  0
VERTEX
  8
0
 10
681.954646
 20
934.867919
 42
0.039411
  0
VERTEX
  8
0
 10
666.844290
 20
937.331014
 42
0.030254
  0
VERTEX
  8
0
 10
647.863294
 20
937.754649
 42
0.013641
  0
VERTEX
  8
0
 10
623.000000
 20
936.124928
 42
-0.003249
  0
VERTEX
  8
0
 10
603.249781
 20
934.417530
 42
-0.004149
  0
VERTEX
  8
0
 10
585.027779
 20
933.113557
 42
-0.004551
  0
VERTEX
  8
0
 10
569.373359
 20
932.266804
 42
-0.011114
  0
VERTEX
  8
0
 10
557.830607
 20
932.004647
 42
0.000000
  0
VERTEX
  8
0
 10
548.161215
 20
932.000000
 42
0.000000
  0
VERTEX
  8
0
 10
549.282005
 20
928.250000
 42
-0.045601
  0
VERTEX
  8
0
 10
549.713129
 20
926.115399
 42
-0.009449
  0
VERTEX
  8
0
 10
550.054853
 20
922.296875
 42
-0.009854
  0
VERTEX
  8
0
 10
550.281184
 20
917.832037
 42
-0.009151
  0
VERTEX
  8
0
 10
550.339100
 20
913.250000
 42
0.004864
  0
VERTEX
  8
0
 10
550.362565
 20
907.479631
 42
0.025287
  0
VERTEX
  8
0
 10
550.567301
 20
904.302838
 42
0.047618
  0
VERTEX
  8
0
 10
550.950951
 20
902.503642
 42
0.327383
  0
VERTEX
  8
0
 10
551.637702
 20
902.000000
 42
-0.242678
  0
VERTEX
  8
0
 10
552.571981
 20
901.518165
 42
-0.172065
  0
VERTEX
  8
0
 10
552.901325
 20
900.362829
 42
-0.057678
  0
VERTEX
  8
0
 10
552.493426
 20
898.099720
 42
-0.009453
  0
VERTEX
  8
0
 10
551.123324
 20
893.858447
 42
-0.017451
  0
VERTEX
  8
0
 10
548.996185
 20
888.312823
 42
-0.025125
  0
VERTEX
  8
0
 10
546.703354
 20
883.583236
 42
-0.025745
  0
VERTEX
  8
0
 10
543.993925
 20
879.194832
 42
-0.019734
  0
VERTEX
  8
0
 10
540.608863
 20
874.686696
 42
0.013744
  0
VERTEX
  8
0
 10
538.476585
 20
871.916708
 42
0.043015
  0
VERTEX
  8
0
 10
537.263951
 20
869.905498
 42
0.065876
  0
VERTEX
  8
0
 10
536.711714
 20
868.266762
 42
0.095882
  0
VERTEX
  8
0
 10
536.708223
 20
866.746001
 42
-0.117156
  0
VERTEX
  8
0
 10
536.638175
 20
865.168134
 42
-0.116056
  0
VERTEX
  8
0
 10
535.866406
 20
863.784146
 42
-0.051832
  0
VERTEX
  8
0
 10
534.014046
 20
862.134899
 42
-0.007442
  0
VERTEX
  8
0
 10
529.848098
 20
859.229417
 42
0.012641
  0
VERTEX
  8
0
 10
517.781119
 20
850.625601
 42
0.069694
  0
VERTEX
  8
0
 10
512.139818
 20
845.001787
 42
0.115571
  0
VERTEX
  8
0
 10
509.665461
 20
839.426092
 42
0.064834
  0
VERTEX
  8
0
 10
509.233061
 20
831.986743
 42
0.059027
  0
VERTEX
  8
0
 10
510.840504
 20
823.598941
 42
0.068405
  0
VERTEX
  8
0
 10
514.329620
 20
816.261208
 42
0.065373
  0
VERTEX
  8
0
 10
519.821604
 20
809.884809
 42
0.047741
  0
VERTEX
  8
0
 10
527.362924
 20
804.342201
 42
-0.020143
  0
VERTEX
  8
0
 10
536.861075
 20
798.137195
 42
-0.022090
  0
VERTEX
  8
0
 10
545.530783
 20
791.364933
 42
-0.022665
  0
VERTEX
  8
0
 10
553.363484
 20
784.029438
 42
-0.023896
  0
VERTEX
  8
0
 10
560.355662
 20
776.138113
 42
-0.017896
  0
VERTEX
  8
0
 10
561.669748
 20
774.378624
 42
-0.072626
  0
VERTEX
  8
0
 10
562.262677
 20
773.183978
 42
-0.129311
  0
VERTEX
  8
0
 10
562.317554
 20
772.247132
 42
-0.124142
  0
VERTEX
  8
0
 10
561.907142
 20
771.388113
 42
0.048884
  0
VERTEX
  8
0
 10
561.422435
 20
770.672014
 42
0.330494
  0
VERTEX
  8
0
 10
561.479034
 20
770.273387
 42
0.181628
  0
VERTEX
  8
0
 10
561.968642
 20
770.047639
 42
0.018175
  0
VERTEX
  8
0
 10
563.278779
 20
770.000000
 42
-0.080038
  0
VERTEX
  8
0
 10
564.570287
 20
769.791928
 42
-0.084304
  0
VERTEX
  8
0
 10
565.705661
 20
769.189711
 42
-0.066074
  0
VERTEX
  8
0
 10
566.780057
 20
768.110042
 42
-0.029496
  0
VERTEX
  8
0
 10
567.901224
 20
766.442840
 42
-0.020724
  0
VERTEX
  8
0
 10
568.704556
 20
764.942545
 42
-0.020542
  0
VERTEX
  8
0
 10
569.383485
 20
763.376543
 42
-0.020910
  0
VERTEX
  8
0
 10
569.862390
 20
761.960813
 42
-0.071214
  0
VERTEX
  8
0
 10
570.000000
 20
760.999544
 42
-0.156940
  0
VERTEX
  8
0
 10
569.479782
 20
759.382982
 42
-0.066529
  0
VERTEX
  8
0
 10
567.900311
 20
757.706263
 42
-0.064259
  0
VERTEX
  8
0
 10
565.837609
 20
756.430083
 42
-0.106831
  0
VERTEX
  8
0
 10
563.847673
 20
756.000000
 42
-0.194478
  0
VERTEX
  8
0
 10
562.839588
 20
756.407515
 42
-0.013017
  0
VERTEX
  8
0
 10
560.614542
 20
758.672782
 42
-0.016548
  0
VERTEX
  8
0
 10
557.978118
 20
761.695059
 42
-0.009922
  0
VERTEX
  8
0
 10
555.040576
 20
765.446015
 42
0.039739
  0
VERTEX
  8
0
 10
542.687043
 20
779.418708
 42
0.035139
  0
VERTEX
  8
0
 10
527.786159
 20
791.896829
 42
0.033166
  0
VERTEX
  8
0
 10
510.409071
 20
802.805475
 42
0.027569
  0
VERTEX
  8
0
 10
490.653286
 20
812.085612
 42
-0.019163
  0
VERTEX
  8
0
 10
487.427800
 20
813.535115
 42
-0.059592
  0
VERTEX
  8
0
 10
485.437092
 20
814.838541
 42
-0.067867
  0
VERTEX
  8
0
 10
483.951934
 20
816.476481
 42
-0.030428
  0
VERTEX
  8
0
 10
482.454262
 20
818.974099
 42
0.014617
  0
VERTEX
  8
0
 10
480.286190
 20
822.863333
 42
0.018273
  0
VERTEX
  8
0
 10
478.041143
 20
826.332817
 42
0.053284
  0
VERTEX
  8
0
 10
476.764309
 20
827.796474
 42
0.775796
  0
VERTEX
  8
0
 10
476.428403
 20
827.579926
 42
-0.020007
  0
VERTEX
  8
0
 10
477.232684
 20
824.797926
 42
-0.008232
  0
VERTEX
  8
0
 10
478.108437
 20
820.970861
 42
-0.002312
  0
VERTEX
  8
0
 10
478.937441
 20
816.961025
 42
-0.251257
  0
VERTEX
  8
0
 10
478.783187
 20
816.449853
 42
-0.244491
  0
VERTEX
  8
0
 10
478.189398
 20
816.262377
 42
-0.002389
  0
VERTEX
  8
0
 10
473.635133
 20
817.084191
 42
-0.008323
  0
VERTEX
  8
0
 10
469.069941
 20
818.009374
 42
-0.012730
  0
VERTEX
  8
0
 10
465.148845
 20
818.977487
 42
-0.054511
  0
VERTEX
  8
0
 10
463.107288
 20
819.784471
 42
-0.075697
  0
VERTEX
  8
0
 10
461.527991
 20
820.951635
 42
-0.052764
  0
VERTEX
  8
0
 10
460.000159
 20
822.849454
 42
-0.014264
  0
VERTEX
  8
0
 10
458.000000
 20
826.157251
 42
0.042291
  0
VERTEX
  8
0
 10
454.186020
 20
831.733830
 42
0.014486
  0
VERTEX
  8
0
 10
447.773756
 20
839.143559
 42
0.012771
  0
VERTEX
  8
0
 10
441.110232
 20
846.044896
 42
0.074148
  0
VERTEX
  8
0
 10
437.030764
 20
849.015317
 42
0.059379
  0
VERTEX
  8
0
 10
436.053237
 20
849.386300
 42
0.633251
  0
VERTEX
  8
0
 10
435.851746
 20
849.140107
 42
0.065234
  0
VERTEX
  8
0
 10
436.473854
 20
848.176816
 42
0.004519
  0
VERTEX
  8
0
 10
438.591744
 20
845.726463
 42
-0.020672
  0
VERTEX
  8
0
 10
444.174294
 20
838.829352
 42
-0.013945
  0
VERTEX
  8
0
 10
449.985525
 20
830.536367
 42
-0.005531
  0
VERTEX
  8
0
 10
455.258578
 20
822.350704
 42
-0.416453
  0
VERTEX
  8
0
 10
454.935981
 20
820.960434
 42
-0.143186
  0
VERTEX
  8
0
 10
453.316006
 20
820.513600
 42
-0.020197
  0
VERTEX
  8
0
 10
449.821579
 20
820.708409
 42
-0.023280
  0
VERTEX
  8
0
 10
445.874778
 20
821.275189
 42
-0.026694
  0
VERTEX
  8
0
 10
442.177273
 20
822.190058
 42
-0.048280
  0
VERTEX
  8
0
 10
440.494135
 20
822.886682
 42
-0.013541
  0
VERTEX
  8
0
 10
438.016024
 20
824.292368
 42
-0.013523
  0
VERTEX
  8
0
 10
435.286066
 20
826.042604
 42
-0.013857
  0
VERTEX
  8
0
 10
432.677273
 20
827.924276
 42
0.012723
  0
VERTEX
  8
0
 10
426.833358
 20
832.159551
 42
0.020839
  0
VERTEX
  8
0
 10
421.654175
 20
835.406754
 42
0.023350
  0
VERTEX
  8
0
 10
416.689214
 20
837.939123
 42
0.023404
  0
VERTEX
  8
0
 10
411.513543
 20
839.995341
 42
0.002606
  0
VERTEX
  8
0
 10
405.308691
 20
842.094025
 42
0.534564
  0
VERTEX
  8
0
 10
404.879156
 20
841.760050
 42
0.262166
  0
VERTEX
  8
0
 10
405.353389
 20
841.043602
 42
0.002098
  0
VERTEX
  8
0
 10
411.668618
 20
837.842850
 42
-0.022568
  0
VERTEX
  8
0
 10
418.139382
 20
834.223123
 42
-0.013637
  0
VERTEX
  8
0
 10
425.476121
 20
829.390797
 42
-0.007803
  0
VERTEX
  8
0
 10
432.257382
 20
824.495030
 42
-0.158114
  0
VERTEX
  8
0
 10
433.705241
 20
822.450782
 42
-0.386499
  0
VERTEX
  8
0
 10
433.470198
 20
821.944988
 42
-0.012953
  0
VERTEX
  8
0
 10
431.236856
 20
821.072961
 42
-0.018290
  0
VERTEX
  8
0
 10
428.324107
 20
820.140656
 42
-0.010618
  0
VERTEX
  8
0
 10
424.766406
 20
819.224786
 42
-0.006958
  0
VERTEX
  8
0
 10
419.136314
 20
817.984619
 42
-0.038863
  0
VERTEX
  8
0
 10
416.073014
 20
817.599042
 42
-0.055034
  0
VERTEX
  8
0
 10
413.473730
 20
817.761531
 42
-0.022820
  0
VERTEX
  8
0
 10
410.032072
 20
818.524004
 42
0.047803
  0
VERTEX
  8
0
 10
404.291021
 20
819.498386
 42
0.013826
  0
VERTEX
  8
0
 10
395.298846
 20
819.902739
 42
0.011202
  0
VERTEX
  8
0
 10
386.393718
 20
819.857181
 42
0.094868
  0
VERTEX
  8
0
 10
382.500000
 20
819.000000
 42
0.000000
  0
VERTEX
  8
0
 10
380.500000
 20
818.140571
 42
0.000000
  0
VERTEX
  8
0
 10
382.500000
 20
818.063770
 42
-0.002728
  0
VERTEX
  8
0
 10
392.624318
 20
817.619670
 42
-0.010723
  0
VERTEX
  8
0
 10
398.855972
 20
817.178122
 42
-0.015033
  0
VERTEX
  8
0
 10
402.954924
 20
816.674525
 42
-0.084975
  0
VERTEX
  8
0
 10
405.036691
 20
815.980363
 42
-0.146080
  0
VERTEX
  8
0
 10
405.826453
 20
815.196729
 42
-0.379852
  0
VERTEX
  8
0
 10
405.660499
 20
814.477762
 42
-0.060672
  0
VERTEX
  8
0
 10
404.031608
 20
813.594828
 42
-0.003756
  0
VERTEX
  8
0
 10
398.892537
 20
811.613336
 42
0.024592
  0
VERTEX
  8
0
 10
389.930493
 20
807.721673
 42
0.024697
  0
VERTEX
  8
0
 10
381.407028
 20
802.973823
 42
0.026126
  0
VERTEX
  8
0
 10
373.982604
 20
797.786399
 42
0.042998
  0
VERTEX
  8
0
 10
368.371413
 20
792.579587
 42
-0.010533
  0
VERTEX
  8
0
 10
366.308960
 20
790.400390
 42
-0.021247
  0
VERTEX
  8
0
 10
364.577853
 20
788.789756
 42
-0.026541
  0
VERTEX
  8
0
 10
363.317840
 20
787.824298
 42
-0.603356
  0
VERTEX
  8
0
 10
363.000000
 20
787.991806
 42
-0.070639
  0
VERTEX
  8
0
 10
363.128817
 20
788.899062
 42
-0.003031
  0
VERTEX
  8
0
 10
364.047664
 20
791.999120
 42
-0.005132
  0
VERTEX
  8
0
 10
365.200163
 20
795.666640
 42
-0.003628
  0
VERTEX
  8
0
 10
366.566516
 20
799.762370
 42
0.003044
  0
VERTEX
  8
0
 10
367.911237
 20
803.777627
 42
0.005026
  0
VERTEX
  8
0
 10
368.992392
 20
807.187688
 42
0.001033
  0
VERTEX
  8
0
 10
369.899413
 20
810.173641
 42
0.348472
  0
VERTEX
  8
0
 10
369.816516
 20
810.382530
 42
0.022148
  0
VERTEX
  8
0
 10
369.585098
 20
810.502448
 42
0.000696
  0
VERTEX
  8
0
 10
368.619041
 20
810.948329
 42
0.001354
  0
VERTEX
  8
0
 10
367.477781
 20
811.469409
 42
0.000938
  0
VERTEX
  8
0
 10
366.184474
 20
812.052760
 42
0.000000
  0
VERTEX
  8
0
 10
362.868949
 20
813.540763
 42
0.000000
  0
VERTEX
  8
0
 10
366.623261
 20
818.520381
 42
-0.015435
  0
VERTEX
  8
0
 10
372.558363
 20
825.906770
 42
-0.018468
  0
VERTEX
  8
0
 10
378.606654
 20
832.468771
 42
-0.020089
  0
VERTEX
  8
0
 10
384.260137
 20
837.725067
 42
-0.049698
  0
VERTEX
  8
0
 10
388.894746
 20
840.960973
 42
0.075128
  0
VERTEX
  8
0
 10
389.649330
 20
841.546827
 42
0.251234
  0
VERTEX
  8
0
 10
389.810025
 20
842.131180
 42
0.119525
  0
VERTEX
  8
0
 10
389.424750
 20
842.905232
 42
0.013609
  0
VERTEX
  8
0
 10
388.117192
 20
844.375255
 42
-0.037329
  0
VERTEX
  8
0
 10
387.251039
 20
845.447304
 42
-0.043955
  0
VERTEX
  8
0
 10
386.606054
 20
846.581439
 42
-0.049363
  0
VERTEX
  8
0
 10
386.252132
 20
847.612732
 42
-0.150714
  0
VERTEX
  8
0
 10
386.301287
 20
848.342758
 42
-0.179962
  0
VERTEX
  8
0
 10
387.719261
 20
849.951285
 42
-0.014562
  0
VERTEX
  8
0
 10
392.845105
 20
852.510339
 42
-0.017424
  0
VERTEX
  8
0
 10
399.524847
 20
855.327237
 42
-0.010624
  0
VERTEX
  8
0
 10
407.588736
 20
858.206875
 42
0.004947
  0
VERTEX
  8
0
 10
413.192001
 20
860.136379
 42
0.057227
  0
VERTEX
  8
0
 10
415.275048
 20
861.157702
 42
0.172204
  0
VERTEX
  8
0
 10
416.103363
 20
862.225979
 42
0.127526
  0
VERTEX
  8
0
 10
416.200915
 20
863.729315
 42
-0.022154
  0
VERTEX
  8
0
 10
416.004998
 20
865.074903
 42
-0.190629
  0
VERTEX
  8
0
 10
416.167638
 20
865.648141
 42
-0.269792
  0
VERTEX
  8
0
 10
416.635300
 20
865.840686
 42
-0.042742
  0
VERTEX
  8
0
 10
417.642720
 20
865.613396
 42
0.023308
  0
VERTEX
  8
0
 10
418.931773
 20
865.269480
 42
0.001567
  0
VERTEX
  8
0
 10
422.660467
 20
864.470897
 42
0.002251
  0
VERTEX
  8
0
 10
427.114598
 20
863.552452
 42
0.001684
  0
VERTEX
  8
0
 10
432.030541
 20
862.579039
 42
-0.004899
  0
VERTEX
  8
0
 10
437.116125
 20
861.538000
 42
-0.005183
  0
VERTEX
  8
0
 10
442.085534
 20
860.415888
 42
-0.004960
  0
VERTEX
  8
0
 10
446.346071
 20
859.362574
 42
-0.023447
  0
VERTEX
  8
0
 10
448.750000
 20
858.621132
 42
0.000000
  0
VERTEX
  8
0
 10
453.000000
 20
857.088718
 42
0.000000
  0
VERTEX
  8
0
 10
453.000000
 20
859.544359
 42
-0.037065
  0
VERTEX
  8
0
 10
453.132814
 20
861.333507
 42
-0.348595
  0
VERTEX
  8
0
 10
453.658778
 20
861.825223
 42
-0.133147
  0
VERTEX
  8
0
 10
454.708851
 20
861.629989
 42
-0.005796
  0
VERTEX
  8
0
 10
458.084898
 20
859.956688
 42
-0.043558
  0
VERTEX
  8
0
 10
462.598008
 20
857.134703
 42
-0.036300
  0
VERTEX
  8
0
 10
466.857869
 20
853.410295
 42
-0.029781
  0
VERTEX
  8
0
 10
471.234537
 20
848.422675
 42
-0.015308
  0
VERTEX
  8
0
 10
476.134321
 20
841.703755
 42
0.013256
  0
VERTEX
  8
0
 10
481.944774
 20
833.667014
 42
0.026163
  0
VERTEX
  8
0
 10
487.046612
 20
827.668717
 42
0.032905
  0
VERTEX
  8
0
 10
491.754216
 20
823.301691
 42
0.053319
  0
VERTEX
  8
0
 10
496.329630
 20
820.332964
 42
0.011111
  0
VERTEX
  8
0
 10
498.230721
 20
819.422117
 42
0.017328
  0
VERTEX
  8
0
 10
499.910117
 20
818.731929
 42
0.011749
  0
VERTEX
  8
0
 10
501.296898
 20
818.254159
 42
0.280445
  0
VERTEX
  8
0
 10
501.680868
 20
818.347535
 42
0.267352
  0
VERTEX
  8
0
 10
501.797854
 20
818.782193
 42
0.002254
  0
VERTEX
  8
0
 10
500.852829
 20
822.277170
 42
0.007109
  0
VERTEX
  8
0
 10
499.675298
 20
826.329314
 42
0.004425
  0
VERTEX
  8
0
 10
498.185160
 20
831.048165
 42
0.006441
  0
VERTEX
  8
0
 10
495.822988
 20
837.998737
 42
0.031907
  0
VERTEX
  8
0
 10
494.198895
 20
841.794686
 42
0.051991
  0
VERTEX
  8
0
 10
492.507889
 20
844.421530
 42
0.040841
  0
VERTEX
  8
0
 10
490.179746
 20
846.883397
 42
-0.032017
  0
VERTEX
  8
0
 10
486.121804
 20
851.025674
 42
-0.034497
  0
VERTEX
  8
0
 10
482.734535
 20
855.554897
 42
-0.034777
  0
VERTEX
  8
0
 10
480.025143
 20
860.471725
 42
-0.033649
  0
VERTEX
  8
0
 10
477.989258
 20
865.770203
 42
-0.004098
  0
VERTEX
  8
0
 10
476.292970
 20
871.426130
 42
-0.114183
  0
VERTEX
  8
0
 10
476.207555
 20
872.955254
 42
-0.460197
  0
VERTEX
  8
0
 10
476.911328
 20
873.373884
 42
-0.037833
  0
VERTEX
  8
0
 10
479.142635
 20
872.426240
 42
0.004970
  0
VERTEX
  8
0
 10
481.273665
 20
871.350954
 42
0.187921
  0
VERTEX
  8
0
 10
481.800541
 20
871.305605
 42
0.395137
  0
VERTEX
  8
0
 10
481.995775
 20
871.636888
 42
0.015049
  0
VERTEX
  8
0
 10
481.608986
 20
873.150560
 42
-0.026197
  0
VERTEX
  8
0
 10
480.122198
 20
879.561381
 42
-0.035038
  0
VERTEX
  8
0
 10
479.493832
 20
885.497653
 42
-0.028567
  0
VERTEX
  8
0
 10
479.642056
 20
892.324844
 42
-0.011052
  0
VERTEX
  8
0
 10
480.596015
 20
901.744427
 42
0.000000
  0
VERTEX
  8
0
 10
481.120874
 20
905.988854
 42
0.000000
  0
VERTEX
  8
0
 10
483.980888
 20
904.509883
 42
0.000000
  0
VERTEX
  8
0
 10
486.840901
 20
903.030913
 42
0.000000
  0
VERTEX
  8
0
 10
487.920612
 20
908.065427
 42
-0.028727
  0
VERTEX
  8
0
 10
489.200850
 20
912.714780
 42
-0.045912
  0
VERTEX
  8
0
 10
490.871504
 20
916.477077
 42
-0.036904
  0
VERTEX
  8
0
 10
493.462336
 20
920.402098
 42
-0.012246
  0
VERTEX
  8
0
 10
497.810446
 20
925.760423
 42
0.001765
  0
VERTEX
  8
0
 10
500.165624
 20
928.541566
 42
0.001793
  0
VERTEX
  8
0
 10
502.488803
 20
931.324843
 42
0.001742
  0
VERTEX
  8
0
 10
504.492143
 20
933.759723
 42
0.007382
  0
VERTEX
  8
0
 10
505.664678
 20
935.239044
 42
-0.009110
  0
VERTEX
  8
0
 10
507.078845
 20
937.010605
 42
-0.174191
  0
VERTEX
  8
0
 10
507.677577
 20
937.364618
 42
-0.276858
  0
VERTEX
  8
0
 10
508.223163
 20
937.164765
 42
-0.023340
  0
VERTEX
  8
0
 10
509.146865
 20
935.905330
 42
0.172487
  0
VERTEX
  8
0
 10
510.213683
 20
935.105974
 42
0.232255
  0
VERTEX
  8
0
 10
511.388156
 20
935.289471
 42
0.052409
  0
VERTEX
  8
0
 10
513.238265
 20
936.899505
 42
0.003379
  0
VERTEX
  8
0
 10
518.078202
 20
942.166286
 42
0.005693
  0
VERTEX
  8
0
 10
521.019481
 20
945.485874
 42
0.007627
  0
VERTEX
  8
0
 10
523.605494
 20
948.566034
 42
0.005519
  0
VERTEX
  8
0
 10
525.695189
 20
951.192256
 42
0.076260
  0
VERTEX
  8
0
 10
526.285255
 20
952.250000
 42
-0.177048
  0
VERTEX
  8
0
 10
527.446052
 20
953.608477
 42
-0.190148
  0
VERTEX
  8
0
 10
529.169366
 20
953.846815
 42
-0.117004
  0
VERTEX
  8
0
 10
531.281290
 20
952.770499
 42
-0.053781
  0
VERTEX
  8
0
 10
533.419755
 20
950.516319
 42
-0.033595
  0
VERTEX
  8
0
 10
535.900487
 20
946.766325
 42
-0.018738
  0
VERTEX
  8
0
 10
538.428989
 20
941.907161
 42
-0.016414
  0
VERTEX
  8
0
 10
540.474426
 20
937.194616
 42
-0.091287
  0
VERTEX
  8
0
 10
541.005544
 20
934.500000
 42
0.055974
  0
VERTEX
  8
0
 10
541.294295
 20
932.190308
 42
0.151510
  0
VERTEX
  8
0
 10
542.129723
 20
930.786871
 42
0.196475
  0
VERTEX
  8
0
 10
543.448035
 20
930.312928
 42
0.101732
  0
VERTEX
  8
0
 10
545.174329
 20
930.745740
 42
0.013437
  0
VERTEX
  8
0
 10
546.207844
 20
931.277632
 42
0.134165
  0
VERTEX
  8
0
 10
546.554271
 20
931.612815
 42
0.488671
  0
VERTEX
  8
0
 10
546.467358
 20
931.834311
 42
0.061598
  0
VERTEX
  8
0
 10
545.877808
 20
931.932320
 42
-0.161543
  0
VERTEX
  8
0
 10
545.123162
 20
932.218110
 42
-0.095341
  0
VERTEX
  8
0
 10
544.497412
 20
932.963516
 42
-0.062265
  0
VERTEX
  8
0
 10
543.996526
 20
934.203599
 42
-0.025241
  0
VERTEX
  8
0
 10
543.617646
 20
935.989649
 42
0.034559
  0
VERTEX
  8
0
 10
542.274937
 20
941.785426
 42
0.041061
  0
VERTEX
  8
0
 10
540.198323
 20
947.002451
 42
0.042280
  0
VERTEX
  8
0
 10
537.358958
 20
951.681676
 42
0.040859
  0
VERTEX
  8
0
 10
533.743483
 20
955.874534
 42
0.006190
  0
VERTEX
  8
0
 10
531.698142
 20
957.838701
 42
0.009327
  0
VERTEX
  8
0
 10
529.863314
 20
959.494394
 42
0.004753
  0
VERTEX
  8
0
 10
528.283682
 20
960.841090
 42
0.175896
  0
VERTEX
  8
0
 10
527.845941
 20
961.000000
 42
0.255429
  0
VERTEX
  8
0
 10
527.515574
 20
960.819449
 42
0.021867
  0
VERTEX
  8
0
 10
527.013552
 20
959.956198
 42
0.024651
  0
VERTEX
  8
0
 10
526.481860
 20
958.808167
 42
0.016416
  0
SEQEND
  0
POLYLINE
  8
0
 66
1
 70
1
  0
VERTEX
  8
0
 10
679.820998
 20
932.092006
 42
-0.061446
  0
VERTEX
  8
0
 10
696.964045
 20
924.703823
 42
-0.076774
  0
VERTEX
  8
0
 10
710.391144
 20
913.781216
 42
-0.072032
  0
VERTEX
  8
0
 10
720.493651
 20
898.719838
 42
-0.046712
  0
VERTEX
  8
0
 10
727.769540
 20
879.011481
 42
-0.018024
  0
VERTEX
  8
0
 10
729.174812
 20
872.850556
 42
-0.024586
  0
VERTEX
  8
0
 10
729.964153
 20
867.210612
 42
-0.014953
  0
VERTEX
  8
0
 10
730.413257
 20
859.732831
 42
-0.002749
  0
VERTEX
  8
0
 10
730.753160
 20
845.909241
 42
-0.006017
  0
VERTEX
  8
0
 10
730.862574
 20
830.391836
 42
-0.016766
  0
VERTEX
  8
0
 10
730.443191
 20
819.507354
 42
-0.023592
  0
VERTEX
  8
0
 10
729.454703
 20
811.254976
 42
-0.037883
  0
VERTEX
  8
0
 10
727.755996
 20
804.376609
 42
-0.038641
  0
VERTEX
  8
0
 10
726.879711
 20
802.275306
 42
-0.089351
  0
VERTEX
  8
0
 10
725.847848
 20
800.919549
 42
-0.075208
  0
VERTEX
  8
0
 10
724.293586
 20
799.874675
 42
-0.021638
  0
VERTEX
  8
0
 10
721.615575
 20
798.747276
 42
-0.006255
  0
VERTEX
  8
0
 10
719.725838
 20
798.073092
 42
-0.010028
  0
VERTEX
  8
0
 10
718.095490
 20
797.550629
 42
-0.004204
  0
VERTEX
  8
0
 10
716.711993
 20
797.150315
 42
-0.292878
  0
VERTEX
  8
0
 10
716.491287
 20
797.217758
 42
-0.229249
  0
VERTEX
  8
0
 10
716.425806
 20
797.470306
 42
-0.000957
  0
VERTEX
  8
0
 10
717.007257
 20
800.354591
 42
-0.004380
  0
VERTEX
  8
0
 10
717.707417
 20
803.645952
 42
-0.002714
  0
VERTEX
  8
0
 10
718.584608
 20
807.500000
 42
0.044644
  0
VERTEX
  8
0
 10
722.541798
 20
835.582762
 42
0.049265
  0
VERTEX
  8
0
 10
721.233877
 20
862.988754
 42
0.053787
  0
VERTEX
  8
0
 10
714.960534
 20
887.192508
 42
0.084304
  0
VERTEX
  8
0
 10
704.129679
 20
905.707993
 42
0.057799
  0
VERTEX
  8
0
 10
697.046340
 20
912.411133
 42
0.047984
  0
VERTEX
  8
0
 10
688.175261
 20
917.806952
 42
0.044764
  0
VERTEX
  8
0
 10
677.808788
 20
921.721945
 42
0.037533
  0
VERTEX
  8
0
 10
666.279243
 20
924.018333
 42
0.029061
  0
VERTEX
  8
0
 10
659.470007
 20
924.451060
 42
0.008996
  0
VERTEX
  8
0
 10
649.198948
 20
924.321294
 42
0.005334
  0
VERTEX
  8
0
 10
633.357661
 20
923.666785
 42
0.001104
  0
VERTEX
  8
0
 10
605.500000
 20
922.156328
 42
-0.001215
  0
VERTEX
  8
0
 10
585.514811
 20
921.077186
 42
-0.001990
  0
VERTEX
  8
0
 10
568.578782
 20
920.271518
 42
-0.000218
  0
VERTEX
  8
0
 10
553.472047
 20
919.619724
 42
-0.204277
  0
VERTEX
  8
0
 10
552.832025
 20
919.860869
 42
-0.133488
  0
VERTEX
  8
0
 10
552.553273
 20
920.323738
 42
-0.016172
  0
VERTEX
  8
0
 10
552.263222
 20
921.487255
 42
-0.018280
  0
VERTEX
  8
0
 10
552.009028
 20
922.921490
 42
-0.014113
  0
VERTEX
  8
0
 10
551.833680
 20
924.500000
 42
0.000000
  0
VERTEX
  8
0
 10
551.503311
 20
928.500000
 42
0.000000
  0
VERTEX
  8
0
 10
571.001655
 20
929.211168
 42
0.006481
  0
VERTEX
  8
0
 10
586.435989
 20
929.974532
 42
0.004555
  0
VERTEX
  8
0
 10
603.781196
 20
931.216673
 42
0.004366
  0
VERTEX
  8
0
 10
619.794338
 20
932.651010
 42
0.015563
  0
VERTEX
  8
0
 10
630.000000
 20
933.976856
 42
-0.029142
  0
VERTEX
  8
0
 10
633.202899
 20
934.304832
 42
-0.004993
  0
VERTEX
  8
0
 10
639.318750
 20
934.511571
 42
-0.005427
  0
VERTEX
  8
0
 10
646.513907
 20
934.604760
 42
-0.004820
  0
VERTEX
  8
0
 10
654.000000
 20
934.548290
 42
-0.004140
  0
VERTEX
  8
0
 10
664.043839
 20
934.292491
 42
-0.015276
  0
VERTEX
  8
0
 10
670.377443
 20
933.884727
 42
-0.022956
  0
VERTEX
  8
0
 10
675.189473
 20
933.202943
 42
-0.024388
  0
SEQEND
  0
POLYLINE
  8
0
 66
1
 70
1
  0
VERTEX
  8
0
 10
435.500000
 20
931.128300
 42
0.007269
  0
VERTEX
  8
0
 10
448.661861
 20
929.754693
 42
0.003619
  0
VERTEX
  8
0
 10
465.369544
 20
928.378048
 42
0.003243
  0
VERTEX
  8
0
 10
481.332936
 20
927.283070
 42
0.015501
  0
VERTEX
  8
0
 10
490.461350
 20
927.000000
 42
-0.043939
  0
VERTEX
  8
0
 10
492.984320
 20
926.777859
 42
-0.316803
  0
VERTEX
  8
0
 10
493.797187
 20
925.958716
 42
-0.174670
  0
VERTEX
  8
0
 10
493.527769
 20
924.460270
 42
-0.015215
  0
VERTEX
  8
0
 10
491.458792
 20
921.117095
 42
0.000000
  0
VERTEX
  8
0
 10
488.917584
 20
917.277070
 42
0.000000
  0
VERTEX
  8
0
 10
468.128469
 20
917.776191
 42
0.009519
  0
VERTEX
  8
0
 10
450.693016
 20
917.862779
 42
0.017681
  0
VERTEX
  8
0
 10
436.567965
 20
917.164017
 42
0.012670
  0
VERTEX
  8
0
 10
425.689562
 20
915.961151
 42
0.375071
  0
VERTEX
  8
0
 10
424.000000
 20
914.025679
 42
-0.149920
  0
VERTEX
  8
0
 10
423.706995
 20
913.070439
 42
-0.018440
  0
VERTEX
  8
0
 10
422.402116
 20
911.288724
 42
-0.020479
  0
VERTEX
  8
0
 10
420.643531
 20
909.242540
 42
-0.015592
  0
VERTEX
  8
0
 10
418.560395
 20
907.145563
 42
0.013554
  0
VERTEX
  8
0
 10
415.727534
 20
904.317023
 42
0.046332
  0
VERTEX
  8
0
 10
414.119460
 20
902.272435
 42
0.066560
  0
VERTEX
  8
0
 10
413.235436
 20
900.399201
 42
0.056419
  0
VERTEX
  8
0
 10
412.810395
 20
898.250506
 42
-0.018370
  0
VERTEX
  8
0
 10
412.536910
 20
895.969160
 42
-0.160963
  0
VERTEX
  8
0
 10
412.077250
 20
895.075868
 42
-0.188769
  0
VERTEX
  8
0
 10
411.212212
 20
894.706843
 42
-0.027010
  0
VERTEX
  8
0
 10
409.250000
 20
894.753806
 42
0.025004
  0
VERTEX
  8
0
 10
407.234311
 20
894.810138
 42
0.212846
  0
VERTEX
  8
0
 10
406.435595
 20
894.432662
 42
0.165056
  0
VERTEX
  8
0
 10
406.070988
 20
893.526939
 42
0.013888
  0
VERTEX
  8
0
 10
406.000000
 20
890.971687
 42
0.030176
  0
VERTEX
  8
0
 10
406.109247
 20
889.163201
 42
0.018608
  0
VERTEX
  8
0
 10
406.444481
 20
887.057523
 42
0.018640
  0
VERTEX
  8
0
 10
406.932975
 20
884.993237
 42
0.031545
  0
VERTEX
  8
0
 10
407.513127
 20
883.314341
 42
-0.008197
  0
VERTEX
  8
0
 10
408.074106
 20
881.907324
 42
-0.012896
  0
VERTEX
  8
0
 10
408.504479
 20
880.679765
 42
-0.006905
  0
VERTEX
  8
0
 10
408.819876
 20
879.651449
 42
-0.274454
  0
VERTEX
  8
0
 10
408.763127
 20
879.430971
 42
-0.270399
  0
VERTEX
  8
0
 10
408.545129
 20
879.374147
 42
-0.008161
  0
VERTEX
  8
0
 10
407.611610
 20
879.652212
 42
-0.014085
  0
VERTEX
  8
0
 10
406.491606
 20
880.040842
 42
-0.009012
  0
VERTEX
  8
0
 10
405.212567
 20
880.551976
 42
-0.105101
  0
VERTEX
  8
0
 10
402.446082
 20
882.475813
 42
-0.082702
  0
VERTEX
  8
0
 10
400.414174
 20
885.519094
 42
-0.075626
  0
VERTEX
  8
0
 10
399.350090
 20
889.323875
 42
-0.066622
  0
VERTEX
  8
0
 10
399.396732
 20
893.447995
 42
0.001972
  0
VERTEX
  8
0
 10
399.783644
 20
896.185401
 42
0.161644
  0
VERTEX
  8
0
 10
399.706369
 20
896.600520
 42
0.575762
  0
VERTEX
  8
0
 10
399.492889
 20
896.605093
 42
0.005746
  0
VERTEX
  8
0
 10
398.539649
 20
895.000000
 42
0.057828
  0
VERTEX
  8
0
 10
396.893577
 20
891.201195
 42
0.038183
  0
VERTEX
  8
0
 10
395.867802
 20
886.549325
 42
0.037180
  0
VERTEX
  8
0
 10
395.540371
 20
881.623929
 42
0.044369
  0
VERTEX
  8
0
 10
395.989173
 20
876.993634
 42
0.034394
  0
VERTEX
  8
0
 10
397.083466
 20
872.779586
 42
0.058973
  0
VERTEX
  8
0
 10
398.630046
 20
869.499868
 42
0.063515
  0
VERTEX
  8
0
 10
400.806458
 20
866.837518
 42
0.047470
  0
VERTEX
  8
0
 10
403.795052
 20
864.500000
 42
-0.045064
  0
VERTEX
  8
0
 10
405.699308
 20
863.025271
 42
-0.094051
  0
VERTEX
  8
0
 10
406.806637
 20
861.519923
 42
-0.240142
  0
VERTEX
  8
0
 10
406.781330
 20
860.495158
 42
-0.275345
  0
VERTEX
  8
0
 10
405.950340
 20
860.000000
 42
-0.142384
  0
VERTEX
  8
0
 10
402.582524
 20
860.978893
 42
-0.026537
  0
VERTEX
  8
0
 10
397.283194
 20
864.752511
 42
-0.029185
  0
VERTEX
  8
0
 10
392.267365
 20
869.243186
 42
-0.076393
  0
VERTEX
  8
0
 10
389.427377
 20
873.140438
 42
0.036550
  0
VERTEX
  8
0
 10
388.714872
 20
874.301734
 42
0.075210
  0
VERTEX
  8
0
 10
387.971587
 20
875.062884
 42
0.106286
  0
VERTEX
  8
0
 10
387.223346
 20
875.410908
 42
0.148577
  0
VERTEX
  8
0
 10
386.492114
 20
875.358600
 42
-0.250804
  0
VERTEX
  8
0
 10
385.760189
 20
875.450617
 42
-0.179212
  0
VERTEX
  8
0
 10
385.285140
 20
876.145584
 42
-0.053750
  0
VERTEX
  8
0
 10
385.052834
 20
877.823816
 42
-0.007538
  0
VERTEX
  8
0
 10
385.000000
 20
881.327912
 42
-0.013306
  0
VERTEX
  8
0
 10
385.071671
 20
884.020599
 42
-0.013366
  0
VERTEX
  8
0
 10
385.286479
 20
886.701619
 42
-0.013290
  0
VERTEX
  8
0
 10
385.598079
 20
889.026044
 42
-0.050915
  0
VERTEX
  8
0
 10
385.975249
 20
890.434900
 42
0.019319
  0
VERTEX
  8
0
 10
386.453193
 20
891.854810
 42
0.155149
  0
VERTEX
  8
0
 10
386.438360
 20
892.535481
 42
0.259204
  0
VERTEX
  8
0
 10
386.042614
 20
892.892444
 42
0.056729
  0
VERTEX
  8
0
 10
385.097694
 20
893.000000
 42
-0.250256
  0
VERTEX
  8
0
 10
382.534292
 20
894.368737
 42
-0.232382
  0
VERTEX
  8
0
 10
382.136271
 20
897.337873
 42
-0.106309
  0
VERTEX
  8
0
 10
384.652429
 20
901.581297
 42
-0.055144
  0
VERTEX
  8
0
 10
389.331658
 20
905.632392
 42
-0.005664
  0
VERTEX
  8
0
 10
391.194954
 20
906.885564
 42
-0.006874
  0
VERTEX
  8
0
 10
392.970437
 20
908.016076
 42
-0.005893
  0
VERTEX
  8
0
 10
394.485655
 20
908.927350
 42
-0.046579
  0
VERTEX
  8
0
 10
395.227274
 20
909.273398
 42
0.259381
  0
VERTEX
  8
0
 10
395.545381
 20
909.636290
 42
0.183146
  0
VERTEX
  8
0
 10
395.462516
 20
910.184110
 42
0.074076
  0
VERTEX
  8
0
 10
394.857826
 20
910.962787
 42
0.021551
  0
VERTEX
  8
0
 10
393.712362
 20
911.966492
 42
-0.022064
  0
VERTEX
  8
0
 10
392.368242
 20
913.146706
 42
-0.092686
  0
VERTEX
  8
0
 10
391.745471
 20
914.016702
 42
-0.165303
  0
VERTEX
  8
0
 10
391.662429
 20
914.777044
 42
-0.119023
  0
VERTEX
  8
0
 10
392.041132
 20
915.549561
 42
-0.111847
  0
VERTEX
  8
0
 10
394.084029
 20
917.119749
 42
-0.028265
  0
VERTEX
  8
0
 10
398.006155
 20
918.668231
 42
-0.027224
  0
VERTEX
  8
0
 10
402.832217
 20
919.978304
 42
-0.023707
  0
VERTEX
  8
0
 10
408.000000
 20
920.829409
 42
0.000000
  0
VERTEX
  8
0
 10
414.500000
 20
921.585646
 42
0.000000
  0
VERTEX
  8
0
 10
406.709152
 20
922.792823
 42
0.048662
  0
VERTEX
  8
0
 10
387.007900
 20
923.906701
 42
0.053321
  0
VERTEX
  8
0
 10
368.080003
 20
921.098093
 42
0.056548
  0
VERTEX
  8
0
 10
351.189397
 20
914.608432
 42
0.070240
  0
VERTEX
  8
0
 10
337.505079
 20
904.837995
 42
0.010431
  0
VERTEX
  8
0
 10
334.873726
 20
902.228840
 42
0.017310
  0
VERTEX
  8
0
 10
332.780275
 20
899.909051
 42
0.011434
  0
VERTEX
  8
0
 10
331.221848
 20
897.968721
 42
0.375301
  0
VERTEX
  8
0
 10
331.257559
 20
897.413769
 42
0.364577
  0
VERTEX
  8
0
 10
331.792211
 20
897.365917
 42
0.017531
  0
VERTEX
  8
0
 10
333.332553
 20
898.524777
 42
0.021775
  0
VERTEX
  8
0
 10
335.193076
 20
900.168459
 42
0.013135
  0
VERTEX
  8
0
 10
337.257559
 20
902.266278
 42
-0.021639
  0
VERTEX
  8
0
 10
339.788977
 20
904.752557
 42
-0.020806
  0
VERTEX
  8
0
 10
342.558144
 20
907.045162
 42
-0.021711
  0
VERTEX
  8
0
 10
345.353317
 20
908.984255
 42
-0.032708
  0
VERTEX
  8
0
 10
347.957836
 20
910.399334
 42
-0.006340
  0
VERTEX
  8
0
 10
350.072202
 20
911.342604
 42
-0.010155
  0
VERTEX
  8
0
 10
351.902544
 20
912.087791
 42
-0.004313
  0
VERTEX
  8
0
 10
353.458551
 20
912.669400
 42
-0.291476
  0
VERTEX
  8
0
 10
353.722433
 20
912.610900
 42
-0.309325
  0
VERTEX
  8
0
 10
353.770649
 20
912.353851
 42
-0.005281
  0
VERTEX
  8
0
 10
353.148751
 20
910.980194
 42
-0.011405
  0
VERTEX
  8
0
 10
352.348000
 20
909.357843
 42
-0.007089
  0
VERTEX
  8
0
 10
351.338704
 20
907.490329
 42
0.055168
  0
VERTEX
  8
0
 10
349.621452
 20
903.422241
 42
0.043075
  0
VERTEX
  8
0
 10
348.653317
 20
898.721509
 42
0.044169
  0
VERTEX
  8
0
 10
348.520307
 20
894.094149
 42
0.072411
  0
VERTEX
  8
0
 10
349.313483
 20
890.262303
 42
-0.025806
  0
VERTEX
  8
0
 10
349.714913
 20
888.951040
 42
-0.294794
  0
VERTEX
  8
0
 10
349.548825
 20
888.462753
 42
-0.205937
  0
VERTEX
  8
0
 10
348.967098
 20
888.305891
 42
-0.013647
  0
VERTEX
  8
0
 10
347.220846
 20
888.605831
 42
0.000000
  0
VERTEX
  8
0
 10
344.314727
 20
889.187055
 42
0.000000
  0
VERTEX
  8
0
 10
342.122569
 20
878.892067
 42
-0.003136
  0
VERTEX
  8
0
 10
341.249185
 20
874.913090
 42
-0.004842
  0
VERTEX
  8
0
 10
340.439505
 20
871.486378
 42
-0.001701
  0
VERTEX
  8
0
 10
339.704532
 20
868.548178
 42
-0.135033
  0
VERTEX
  8
0
 10
339.471337
 20
868.138004
 42
-0.279050
  0
VERTEX
  8
0
 10
339.177376
 20
868.065710
 42
-0.044869
  0
VERTEX
  8
0
 10
338.608122
 20
868.301564
 42
-0.038575
  0
VERTEX
  8
0
 10
337.913771
 20
868.736481
 42
-0.024723
  0
VERTEX
  8
0
 10
337.177390
 20
869.339464
 42
0.021551
  0
VERTEX
  8
0
 10
335.547231
 20
870.691674
 42
0.195552
  0
VERTEX
  8
0
 10
334.672388
 20
870.927349
 42
0.469205
  0
VERTEX
  8
0
 10
334.374995
 20
870.463672
 42
0.046100
  0
VERTEX
  8
0
 10
334.964816
 20
869.065741
 42
-0.111246
  0
VERTEX
  8
0
 10
336.039032
 20
865.181527
 42
-0.051422
  0
VERTEX
  8
0
 10
335.751910
 20
859.920373
 42
-0.052620
  0
VERTEX
  8
0
 10
334.520232
 20
855.334993
 42
-0.310224
  0
VERTEX
  8
0
 10
332.575642
 20
854.000000
 42
-0.195918
  0
VERTEX
  8
0
 10
331.041924
 20
854.624953
 42
-0.029544
  0
VERTEX
  8
0
 10
328.764117
 20
857.130326
 42
-0.032478
  0
VERTEX
  8
0
 10
326.538242
 20
860.289064
 42
-0.039961
  0
VERTEX
  8
0
 10
324.908813
 20
863.504435
 42
-0.047089
  0
VERTEX
  8
0
 10
324.395935
 20
865.191940
 42
-0.010891
  0
VERTEX
  8
0
 10
323.866191
 20
868.116928
 42
-0.011151
  0
VERTEX
  8
0
 10
323.402833
 20
871.526118
 42
-0.010698
  0
VERTEX
  8
0
 10
323.084466
 20
875.000000
 42
0.000000
  0
VERTEX
  8
0
 10
322.488532
 20
883.500000
 42
0.000000
  0
VERTEX
  8
0
 10
320.523343
 20
878.000000
 42
0.055196
  0
VERTEX
  8
0
 10
319.014246
 20
871.637670
 42
0.029795
  0
VERTEX
  8
0
 10
318.506326
 20
863.590707
 42
0.029775
  0
VERTEX
  8
0
 10
318.959558
 20
855.515576
 42
0.053695
  0
VERTEX
  8
0
 10
320.423096
 20
849.058363
 42
0.089457
  0
VERTEX
  8
0
 10
324.500238
 20
841.745571
 42
0.061444
  0
VERTEX
  8
0
 10
331.392644
 20
835.181371
 42
0.062079
  0
VERTEX
  8
0
 10
339.574404
 20
830.558751
 42
0.097881
  0
VERTEX
  8
0
 10
347.460602
 20
829.000000
 42
0.027709
  0
VERTEX
  8
0
 10
350.026020
 20
829.142280
 42
0.045781
  0
VERTEX
  8
0
 10
352.150259
 20
829.577988
 42
0.046991
  0
VERTEX
  8
0
 10
354.120957
 20
830.382803
 42
0.031105
  0
VERTEX
  8
0
 10
356.214363
 20
831.648553
 42
-0.018771
  0
VERTEX
  8
0
 10
357.727322
 20
832.615059
 42
-0.028886
  0
VERTEX
  8
0
 10
359.109798
 20
833.322850
 42
-0.028224
  0
VERTEX
  8
0
 10
360.234209
 20
833.744786
 42
-0.278900
  0
VERTEX
  8
0
 10
360.704293
 20
833.629041
 42
-0.273963
  0
VERTEX
  8
0
 10
361.118267
 20
832.011796
 42
-0.077073
  0
VERTEX
  8
0
 10
359.967741
 20
829.555515
 42
-0.059255
  0
VERTEX
  8
0
 10
357.658260
 20
826.870042
 42
-0.047141
  0
VERTEX
  8
0
 10
354.607805
 20
824.560947
 42
-0.025714
  0
VERTEX
  8
0
 10
351.833789
 20
823.037141
 42
-0.042297
  0
VERTEX
  8
0
 10
349.335842
 20
822.078736
 42
-0.038644
  0
VERTEX
  8
0
 10
346.557056
 20
821.502238
 42
-0.017719
  0
VERTEX
  8
0
 10
342.869352
 20
821.162460
 42
0.006622
  0
VERTEX
  8
0
 10
338.635816
 20
820.866952
 42
0.075400
  0
VERTEX
  8
0
 10
337.010059
 20
820.480377
 42
0.202605
  0
VERTEX
  8
0
 10
336.264775
 20
819.737531
 42
0.097113
  0
VERTEX
  8
0
 10
336.000000
 20
818.387153
 42
-0.087946
  0
VERTEX
  8
0
 10
335.709695
 20
816.749443
 42
-0.300720
  0
VERTEX
  8
0
 10
334.881221
 20
816.138152
 42
-0.118477
  0
VERTEX
  8
0
 10
333.277773
 20
816.437240
 42
-0.012871
  0
VERTEX
  8
0
 10
329.860749
 20
818.071041
 42
-0.044020
  0
VERTEX
  8
0
 10
325.397036
 20
820.867865
 42
-0.031241
  0
VERTEX
  8
0
 10
320.914682
 20
824.721917
 42
-0.031779
  0
VERTEX
  8
0
 10
317.118052
 20
828.925071
 42
-0.063150
  0
VERTEX
  8
0
 10
314.795451
 20
832.756577
 42
0.015393
  0
VERTEX
  8
0
 10
313.615730
 20
835.201252
 42
0.106126
  0
VERTEX
  8
0
 10
312.770280
 20
836.221776
 42
0.170138
  0
VERTEX
  8
0
 10
311.768368
 20
836.565449
 42
0.056129
  0
VERTEX
  8
0
 10
310.200296
 20
836.378362
 42
-0.050489
  0
VERTEX
  8
0
 10
306.473577
 20
835.891151
 42
-0.297649
  0
VERTEX
  8
0
 10
304.873895
 20
836.870808
 42
-0.104738
  0
VERTEX
  8
0
 10
304.216517
 20
839.628758
 42
-0.004840
  0
VERTEX
  8
0
 10
304.065372
 20
849.318752
 42
-0.010046
  0
VERTEX
  8
0
 10
304.181752
 20
857.528147
 42
-0.026658
  0
VERTEX
  8
0
 10
304.694765
 20
863.371430
 42
-0.034136
  0
VERTEX
  8
0
 10
305.724627
 20
868.224201
 42
-0.029598
  0
VERTEX
  8
0
 10
307.442936
 20
873.135729
 42
0.129312
  0
VERTEX
  8
0
 10
307.559779
 20
873.973807
 42
0.192888
  0
VERTEX
  8
0
 10
307.209452
 20
874.615432
 42
0.095303
  0
VERTEX
  8
0
 10
306.254698
 20
875.136893
 42
0.019413
  0
VERTEX
  8
0
 10
304.390029
 20
875.655059
 42
-0.024507
  0
VERTEX
  8
0
 10
302.931890
 20
876.076300
 42
-0.031332
  0
VERTEX
  8
0
 10
301.640510
 20
876.611481
 42
-0.032555
  0
VERTEX
  8
0
 10
300.654173
 20
877.177019
 42
-0.167374
  0
VERTEX
  8
0
 10
300.276613
 20
877.670161
 42
-0.237945
  0
VERTEX
  8
0
 10
300.385789
 20
878.415461
 42
-0.007003
  0
VERTEX
  8
0
 10
302.301570
 20
881.061528
 42
-0.012609
  0
VERTEX
  8
0
 10
304.737509
 20
884.162370
 42
-0.008190
  0
VERTEX
  8
0
 10
307.699723
 20
887.626327
 42
-0.003734
  0
VERTEX
  8
0
 10
313.967616
 20
894.611529
 42
-0.012856
  0
VERTEX
  8
0
 10
318.181444
 20
899.005206
 42
-0.018642
  0
VERTEX
  8
0
 10
321.687117
 20
902.227474
 42
-0.019025
  0
VERTEX
  8
0
 10
325.400038
 20
905.156838
 42
0.008650
  0
VERTEX
  8
0
 10
328.469284
 20
907.476705
 42
0.728411
  0
VERTEX
  8
0
 10
328.331356
 20
907.851285
 42
0.102095
  0
VERTEX
  8
0
 10
326.997337
 20
907.518340
 42
0.003124
  0
VERTEX
  8
0
 10
321.864355
 20
905.011445
 42
0.012085
  0
VERTEX
  8
0
 10
316.733380
 20
902.309265
 42
0.027730
  0
VERTEX
  8
0
 10
313.044551
 20
899.974164
 42
0.032492
  0
VERTEX
  8
0
 10
310.693053
 20
898.054046
 42
0.357865
  0
VERTEX
  8
0
 10
310.542065
 20
896.931938
 42
-0.284430
  0
VERTEX
  8
0
 10
310.541053
 20
895.376016
 42
-0.018023
  0
VERTEX
  8
0
 10
307.883045
 20
891.414077
 42
-0.024547
  0
VERTEX
  8
0
 10
304.418904
 20
887.095457
 42
-0.025244
  0
VERTEX
  8
0
 10
300.578725
 20
883.179331
 42
0.018107
  0
VERTEX
  8
0
 10
298.848747
 20
881.464774
 42
0.027871
  0
VERTEX
  8
0
 10
297.494745
 20
879.850505
 42
0.026613
  0
VERTEX
  8
0
 10
296.586883
 20
878.491648
 42
0.279279
  0
VERTEX
  8
0
 10
296.592588
 20
877.850189
 42
0.093846
  0
VERTEX
  8
0
 10
297.040763
 20
877.360064
 42
0.021253
  0
VERTEX
  8
0
 10
297.975158
 20
876.720216
 42
0.021291
  0
VERTEX
  8
0
 10
299.134365
 20
876.063627
 42
0.019253
  0
VERTEX
  8
0
 10
300.384244
 20
875.483919
 42
0.000000
  0
VERTEX
  8
0
 10
303.524333
 20
874.171906
 42
0.000000
  0
VERTEX
  8
0
 10
302.344608
 20
857.553659
 42
-0.002014
  0
VERTEX
  8
0
 10
301.846519
 20
850.915933
 42
-0.002465
  0
VERTEX
  8
0
 10
301.325370
 20
844.715756
 42
-0.002056
  0
VERTEX
  8
0
 10
300.840165
 20
839.507858
 42
-0.017591
  0
VERTEX
  8
0
 10
300.531496
 20
837.186421
 42
0.000000
  0
VERTEX
  8
0
 10
299.898108
 20
833.437431
 42
0.000000
  0
VERTEX
  8
0
 10
303.825599
 20
833.811978
 42
-0.061134
  0
VERTEX
  8
0
 10
306.353477
 20
833.743612
 42
-0.105837
  0
VERTEX
  8
0
 10
308.312301
 20
833.006208
 42
-0.049669
  0
VERTEX
  8
0
 10
310.659002
 20
831.146301
 42
-0.005263
  0
VERTEX
  8
0
 10
315.626545
 20
826.232393
 42
0.021770
  0
VERTEX
  8
0
 10
321.169036
 20
821.100385
 42
0.021469
  0
VERTEX
  8
0
 10
327.161749
 20
816.444630
 42
0.018864
  0
VERTEX
  8
0
 10
332.631912
 20
812.861979
 42
0.134293
  0
VERTEX
  8
0
 10
335.652175
 20
812.009384
 42
0.186170
  0
VERTEX
  8
0
 10
336.164335
 20
812.202152
 42
0.050046
  0
VERTEX
  8
0
 10
336.762583
 20
812.853827
 42
0.043554
  0
VERTEX
  8
0
 10
337.343095
 20
813.788837
 42
0.033296
  0
VERTEX
  8
0
 10
337.814341
 20
814.897263
 42
-0.052249
  0
VERTEX
  8
0
 10
338.518052
 20
816.392688
 42
-0.101789
  0
VERTEX
  8
0
 10
339.410289
 20
817.355995
 42
-0.085055
  0
VERTEX
  8
0
 10
340.722633
 20
817.991709
 42
-0.028515
  0
VERTEX
  8
0
 10
342.806606
 20
818.467326
 42
0.031590
  0
VERTEX
  8
0
 10
344.763224
 20
818.926542
 42
0.011735
  0
VERTEX
  8
0
 10
347.450395
 20
819.808563
 42
0.011575
  0
VERTEX
  8
0
 10
350.344313
 20
820.910323
 42
0.013709
  0
VERTEX
  8
0
 10
353.023119
 20
822.088456
 42
0.000000
  0
VERTEX
  8
0
 10
359.257357
 20
825.036784
 42
0.000000
  0
VERTEX
  8
0
 10
358.654534
 20
822.022669
 42
-0.028786
  0
VERTEX
  8
0
 10
358.307183
 20
820.689895
 42
-0.017952
  0
VERTEX
  8
0
 10
357.755970
 20
819.172335
 42
-0.018001
  0
VERTEX
  8
0
 10
357.102631
 20
817.710525
 42
-0.030944
  0
VERTEX
  8
0
 10
356.442110
 20
816.551992
 42
-0.100440
  0
VERTEX
  8
0
 10
353.946453
 20
814.030495
 42
-0.036025
  0
VERTEX
  8
0
 10
349.534367
 20
811.514122
 42
-0.036330
  0
VERTEX
  8
0
 10
344.676050
 20
809.609179
 42
-0.075405
  0
VERTEX
  8
0
 10
340.659633
 20
809.000000
 42
0.038063
  0
VERTEX
  8
0
 10
338.452563
 20
808.831740
 42
0.081637
  0
VERTEX
  8
0
 10
336.833882
 20
808.304129
 42
0.070463
  0
VERTEX
  8
0
 10
335.325607
 20
807.230318
 42
0.022794
  0
VERTEX
  8
0
 10
333.421337
 20
805.250000
 42
0.000000
  0
VERTEX
  8
0
 10
330.130720
 20
801.500000
 42
0.000000
  0
VERTEX
  8
0
 10
326.944414
 20
805.308405
 42
0.041192
  0
VERTEX
  8
0
 10
325.230248
 20
807.044540
 42
0.022424
  0
VERTEX
  8
0
 10
322.870253
 20
808.893555
 42
0.021437
  0
VERTEX
  8
0
 10
320.167078
 20
810.652564
 42
0.023161
  0
VERTEX
  8
0
 10
317.390635
 20
812.125296
 42
-0.023757
  0
VERTEX
  8
0
 10
314.509954
 20
813.657727
 42
-0.022443
  0
VERTEX
  8
0
 10
311.730597
 20
815.483756
 42
-0.023303
  0
VERTEX
  8
0
 10
309.251033
 20
817.459340
 42
-0.033892
  0
VERTEX
  8
0
 10
307.277723
 20
819.439410
 42
0.000000
  0
VERTEX
  8
0
 10
303.532283
 20
823.745037
 42
0.000000
  0
VERTEX
  8
0
 10
300.238924
 20
821.233070
 42
-0.010839
  0
VERTEX
  8
0
 10
298.956193
 20
820.297959
 42
-0.018007
  0
VERTEX
  8
0
 10
297.831315
 20
819.573393
 42
-0.012326
  0
VERTEX
  8
0
 10
296.906417
 20
819.054130
 42
-0.375749
  0
VERTEX
  8
0
 10
296.667527
 20
819.110551
 42
-0.075821
  0
VERTEX
  8
0
 10
296.502018
 20
819.437464
 42
-0.000508
  0
VERTEX
  8
0
 10
295.509548
 20
822.469974
 42
-0.001993
  0
VERTEX
  8
0
 10
294.390773
 20
825.947146
 42
-0.001271
  0
VERTEX
  8
0
 10
293.115906
 20
830.000000
 42
-0.025443
  0
VERTEX
  8
0
 10
290.831171
 20
838.897811
 42
-0.024448
  0
VERTEX
  8
0
 10
289.425365
 20
848.100749
 42
-0.025496
  0
VERTEX
  8
0
 10
288.996188
 20
856.391792
 42
-0.068153
  0
VERTEX
  8
0
 10
289.792977
 20
862.242337
 42
0.018897
  0
VERTEX
  8
0
 10
290.358926
 20
864.620179
 42
0.156747
  0
VERTEX
  8
0
 10
290.233161
 20
865.708077
 42
0.157557
  0
VERTEX
  8
0
 10
289.497340
 20
866.516202
 42
0.019148
  0
VERTEX
  8
0
 10
287.342388
 20
867.641816
 42
-0.057664
  0
VERTEX
  8
0
 10
285.010824
 20
869.097963
 42
-0.037635
  0
VERTEX
  8
0
 10
282.684568
 20
871.259456
 42
-0.034860
  0
VERTEX
  8
0
 10
280.971081
 20
873.390685
 42
-0.395393
  0
VERTEX
  8
0
 10
281.114542
 20
874.369155
 42
-0.018447
  0
VERTEX
  8
0
 10
281.405019
 20
874.583300
 42
-0.000403
  0
VERTEX
  8
0
 10
282.855522
 20
875.570489
 42
-0.000920
  0
VERTEX
  8
0
 10
284.556100
 20
876.721305
 42
-0.000621
  0
VERTEX
  8
0
 10
286.500000
 20
878.028065
 42
0.012621
  0
VERTEX
  8
0
 10
288.952513
 20
879.763602
 42
0.004690
  0
VERTEX
  8
0
 10
292.315324
 20
882.322502
 42
0.004644
  0
VERTEX
  8
0
 10
295.932175
 20
885.182881
 42
0.005594
  0
VERTEX
  8
0
 10
299.275570
 20
887.940119
 42
0.003621
  0
VERTEX
  8
0
 10
303.911723
 20
891.909252
 42
0.050902
  0
VERTEX
  8
0
 10
305.409927
 20
893.505270
 42
0.339533
  0
VERTEX
  8
0
 10
305.407861
 20
894.312291
 42
0.199838
  0
VERTEX
  8
0
 10
304.525570
 20
894.816422
 42
-0.048120
  0
VERTEX
  8
0
 10
303.559230
 20
895.033331
 42
-0.062943
  0
VERTEX
  8
0
 10
302.741886
 20
895.420812
 42
-0.077522
  0
VERTEX
  8
0
 10
302.187540
 20
895.910107
 42
-0.174982
  0
VERTEX
  8
0
 10
302.000000
 20
896.429580
 42
-0.195290
  0
VERTEX
  8
0
 10
302.681259
 20
898.107282
 42
-0.010056
  0
VERTEX
  8
0
 10
306.927684
 20
902.301676
 42
-0.015627
  0
VERTEX
  8
0
 10
311.325232
 20
906.220296
 42
-0.067375
  0
VERTEX
  8
0
 10
314.282189
 20
908.082712
 42
0.000000
  0
VERTEX
  8
0
 10
316.642059
 20
909.157941
 42
0.000000
  0
VERTEX
  8
0
 10
313.233529
 20
912.566471
 42
-0.022934
  0
VERTEX
  8
0
 10
311.958594
 20
913.964052
 42
-0.030955
  0
VERTEX
  8
0
 10
310.948227
 20
915.344604
 42
-0.031763
  0
VERTEX
  8
0
 10
310.283756
 20
916.542642
 42
-0.192484
  0
VERTEX
  8
0
 10
310.240221
 20
917.237500
 42
-0.199728
  0
VERTEX
  8
0
 10
310.680842
 20
917.748050
 42
-0.040101
  0
VERTEX
  8
0
 10
311.818064
 20
918.208023
 42
-0.036191
  0
VERTEX
  8
0
 10
313.334021
 20
918.565927
 42
-0.025413
  0
VERTEX
  8
0
 10
315.077721
 20
918.756182
 42
0.022911
  0
VERTEX
  8
0
 10
322.079931
 20
919.484779
 42
0.018903
  0
VERTEX
  8
0
 10
329.456009
 20
920.882668
 42
0.015106
  0
VERTEX
  8
0
 10
338.130577
 20
923.146752
 42
0.007022
  0
VERTEX
  8
0
 10
349.247903
 20
926.580397
 42
-0.003726
  0
VERTEX
  8
0
 10
356.052663
 20
928.731322
 42
-0.004184
  0
VERTEX
  8
0
 10
362.631250
 20
930.696843
 42
-0.003847
  0
VERTEX
  8
0
 10
368.255950
 20
932.279415
 42
-0.022393
  0
VERTEX
  8
0
 10
371.258930
 20
932.956612
 42
-0.045139
  0
VERTEX
  8
0
 10
380.371561
 20
933.749619
 42
-0.006260
  0
VERTEX
  8
0
 10
399.371525
 20
933.446878
 42
-0.007774
  0
VERTEX
  8
0
 10
419.411350
 20
932.564560
 42
-0.014745
  0
SEQEND
  0
POLYLINE
  8
0
 66
1
 70
1
  0
VERTEX
  8
0
 10
390.983173
 20
911.250000
 42
-0.165042
  0
VERTEX
  8
0
 10
390.817642
 20
910.795918
 42
-0.008059
  0
VERTEX
  8
0
 10
389.780617
 20
909.546631
 42
-0.012366
  0
VERTEX
  8
0
 10
388.467199
 20
908.089788
 42
-0.008546
  0
VERTEX
  8
0
 10
386.912998
 20
906.504489
 42
0.028753
  0
VERTEX
  8
0
 10
382.005468
 20
901.076601
 42
0.088194
  0
VERTEX
  8
0
 10
379.630406
 20
896.746286
 42
0.195258
  0
VERTEX
  8
0
 10
379.809491
 20
893.761476
 42
0.224728
  0
VERTEX
  8
0
 10
382.005251
 20
891.974581
 42
-0.046302
  0
VERTEX
  8
0
 10
383.133530
 20
891.583672
 42
-0.110526
  0
VERTEX
  8
0
 10
383.837455
 20
891.052731
 42
-0.134513
  0
VERTEX
  8
0
 10
384.167696
 20
890.345754
 42
-0.085275
  0
VERTEX
  8
0
 10
384.167182
 20
889.430736
 42
0.015282
  0
VERTEX
  8
0
 10
384.007720
 20
888.300305
 42
0.002521
  0
VERTEX
  8
0
 10
383.777837
 20
886.109180
 42
0.002769
  0
VERTEX
  8
0
 10
383.534616
 20
883.528032
 42
0.002444
  0
VERTEX
  8
0
 10
383.309114
 20
880.834557
 42
0.000000
  0
VERTEX
  8
0
 10
382.783863
 20
874.169114
 42
0.000000
  0
VERTEX
  8
0
 10
386.719956
 20
871.317823
 42
-0.011080
  0
VERTEX
  8
0
 10
388.627150
 20
869.870755
 42
-0.004396
  0
VERTEX
  8
0
 10
391.183840
 20
867.803157
 42
-0.004348
  0
VERTEX
  8
0
 10
393.905709
 20
865.522114
 42
-0.005443
  0
VERTEX
  8
0
 10
396.388876
 20
863.356946
 42
-0.004215
  0
VERTEX
  8
0
 10
399.957527
 20
860.121870
 42
-0.073520
  0
VERTEX
  8
0
 10
400.939009
 20
858.906127
 42
-0.368468
  0
VERTEX
  8
0
 10
400.813435
 20
858.190292
 42
-0.111755
  0
VERTEX
  8
0
 10
399.749923
 20
857.652083
 42
-0.092813
  0
VERTEX
  8
0
 10
396.781270
 20
857.471342
 42
-0.051192
  0
VERTEX
  8
0
 10
393.226540
 20
858.290857
 42
-0.047836
  0
VERTEX
  8
0
 10
389.606979
 20
859.926732
 42
-0.050156
  0
VERTEX
  8
0
 10
386.425923
 20
862.199184
 42
0.016133
  0
VERTEX
  8
0
 10
384.133922
 20
864.084200
 42
0.110187
  0
VERTEX
  8
0
 10
382.816343
 20
864.698897
 42
0.115837
  0
VERTEX
  8
0
 10
381.391480
 20
864.679496
 42
0.018630
  0
VERTEX
  8
0
 10
378.703257
 20
863.902066
 42
-0.003142
  0
VERTEX
  8
0
 10
377.056561
 20
863.370059
 42
-0.004485
  0
VERTEX
  8
0
 10
375.587832
 20
862.920173
 42
-0.002524
  0
VERTEX
  8
0
 10
374.344226
 20
862.558232
 42
-0.065921
  0
VERTEX
  8
0
 10
374.000000
 20
862.507433
 42
-0.391185
  0
VERTEX
  8
0
 10
373.788767
 20
862.696813
 42
-0.001833
  0
VERTEX
  8
0
 10
373.500000
 20
865.880308
 42
-0.006766
  0
VERTEX
  8
0
 10
373.227663
 20
869.590980
 42
-0.004070
  0
VERTEX
  8
0
 10
373.000000
 20
874.000000
 42
0.000000
  0
VERTEX
  8
0
 10
372.500000
 20
885.500000
 42
0.000000
  0
VERTEX
  8
0
 10
369.823180
 20
885.809361
 42
-0.086584
  0
VERTEX
  8
0
 10
366.907910
 20
886.672324
 42
-0.323324
  0
VERTEX
  8
0
 10
366.067415
 20
888.267894
 42
-0.120198
  0
VERTEX
  8
0
 10
367.159573
 20
891.003512
 42
-0.012494
  0
VERTEX
  8
0
 10
371.347715
 20
896.580950
 42
-0.015757
  0
VERTEX
  8
0
 10
376.749586
 20
902.986754
 42
-0.027922
  0
VERTEX
  8
0
 10
381.645758
 20
907.858304
 42
-0.031966
  0
VERTEX
  8
0
 10
385.814762
 20
911.114893
 42
-0.150937
  0
VERTEX
  8
0
 10
388.679999
 20
912.000000
 42
-0.030672
  0
VERTEX
  8
0
 10
389.567622
 20
911.945498
 42
-0.048077
  0
VERTEX
  8
0
 10
390.313557
 20
911.779688
 42
-0.061944
  0
VERTEX
  8
0
 10
390.828274
 20
911.538287
 42
-0.263603
  0
SEQEND
  0
POLYLINE
  8
0
 66
1
 70
1
  0
VERTEX
  8
0
 10
645.376620
 20
909.250000
 42
-0.046257
  0
VERTEX
  8
0
 10
645.590795
 20
908.147423
 42
-0.005228
  0
VERTEX
  8
0
 10
645.817127
 20
905.609806
 42
-0.006299
  0
VERTEX
  8
0
 10
646.017255
 20
902.577444
 42
-0.005080
  0
VERTEX
  8
0
 10
646.158088
 20
899.315297
 42
-0.009105
  0
VERTEX
  8
0
 10
646.219827
 20
895.137350
 42
-0.032147
  0
VERTEX
  8
0
 10
646.038292
 20
892.460205
 42
-0.051591
  0
VERTEX
  8
0
 10
645.599415
 20
890.627700
 42
-0.096178
  0
VERTEX
  8
0
 10
644.830593
 20
889.315297
 42
0.052914
  0
VERTEX
  8
0
 10
642.693677
 20
886.296307
 42
0.025803
  0
VERTEX
  8
0
 10
640.601620
 20
882.059223
 42
0.024505
  0
VERTEX
  8
0
 10
638.789360
 20
877.215789
 42
0.025703
  0
VERTEX
  8
0
 10
637.492515
 20
872.294240
 42
-0.003550
  0
VERTEX
  8
0
 10
636.948863
 20
869.784867
 42
-0.005480
  0
VERTEX
  8
0
 10
636.439862
 20
867.624712
 42
-0.001997
  0
VERTEX
  8
0
 10
635.975474
 20
865.778042
 42
-0.148657
  0
VERTEX
  8
0
 10
635.816926
 20
865.516819
 42
-0.225625
  0
VERTEX
  8
0
 10
635.580812
 20
865.447306
 42
-0.016530
  0
VERTEX
  8
0
 10
634.898664
 20
865.578892
 42
-0.020484
  0
VERTEX
  8
0
 10
634.064744
 20
865.804825
 42
-0.013946
  0
VERTEX
  8
0
 10
633.135973
 20
866.126517
 42
-0.041859
  0
VERTEX
  8
0
 10
631.968202
 20
866.683418
 42
-0.141709
  0
VERTEX
  8
0
 10
631.391811
 20
867.289138
 42
-0.150815
  0
VERTEX
  8
0
 10
631.247295
 20
868.084783
 42
-0.049530
  0
VERTEX
  8
0
 10
631.508459
 20
869.259957
 42
0.043626
  0
VERTEX
  8
0
 10
631.820256
 20
870.588838
 42
0.007275
  0
VERTEX
  8
0
 10
632.157186
 20
873.191987
 42
0.007928
  0
VERTEX
  8
0
 10
632.461058
 20
876.272908
 42
0.006951
  0
VERTEX
  8
0
 10
632.682640
 20
879.500000
 42
0.010656
  0
VERTEX
  8
0
 10
632.827499
 20
883.842925
 42
0.035360
  0
VERTEX
  8
0
 10
632.660023
 20
886.694678
 42
0.048786
  0
VERTEX
  8
0
 10
632.135099
 20
888.968858
 42
0.038918
  0
VERTEX
  8
0
 10
631.149528
 20
891.286140
 42
0.000000
  0
VERTEX
  8
0
 10
629.178748
 20
895.072279
 42
0.000000
  0
VERTEX
  8
0
 10
632.075164
 20
897.213692
 42
0.038669
  0
VERTEX
  8
0
 10
633.472725
 20
898.424540
 42
0.012226
  0
VERTEX
  8
0
 10
635.366262
 20
900.436409
 42
0.012127
  0
VERTEX
  8
0
 10
637.375753
 20
902.791388
 42
0.013185
  0
VERTEX
  8
0
 10
639.211593
 20
905.177553
 42
-0.007124
  0
VERTEX
  8
0
 10
642.252591
 20
909.230857
 42
-0.082465
  0
VERTEX
  8
0
 10
643.703246
 20
910.577762
 42
-0.354769
  0
VERTEX
  8
0
 10
644.639977
 20
910.485608
 42
-0.127329
  0
SEQEND
  0
POLYLINE
  8
0
 66
1
 70
1
  0
VERTEX
  8
0
 10
615.143759
 20
901.181622
 42
-0.040649
  0
VERTEX
  8
0
 10
619.765557
 20
898.330567
 42
-0.029064
  0
VERTEX
  8
0
 10
624.445426
 20
894.451575
 42
-0.028651
  0
VERTEX
  8
0
 10
628.301916
 20
890.420777
 42
-0.097114
  0
VERTEX
  8
0
 10
630.078255
 20
887.262884
 42
-0.073619
  0
VERTEX
  8
0
 10
630.745780
 20
883.415754
 42
-0.039370
  0
VERTEX
  8
0
 10
630.485448
 20
878.587806
 42
-0.034885
  0
VERTEX
  8
0
 10
629.369466
 20
873.147105
 42
-0.027133
  0
VERTEX
  8
0
 10
627.432704
 20
867.423882
 42
0.009685
  0
VERTEX
  8
0
 10
625.601445
 20
862.576253
 42
0.078869
  0
VERTEX
  8
0
 10
625.168157
 20
860.253355
 42
0.124281
  0
VERTEX
  8
0
 10
625.591440
 20
858.363108
 42
0.037815
  0
VERTEX
  8
0
 10
627.119674
 20
855.831934
 42
0.000000
  0
VERTEX
  8
0
 10
629.239347
 20
852.855127
 42
0.000000
  0
VERTEX
  8
0
 10
632.246152
 20
855.677563
 42
0.059874
  0
VERTEX
  8
0
 10
635.098790
 20
859.082190
 42
0.037058
  0
VERTEX
  8
0
 10
637.621032
 20
863.658552
 42
0.037315
  0
VERTEX
  8
0
 10
639.405385
 20
868.471314
 42
0.069625
  0
VERTEX
  8
0
 10
639.990231
 20
872.579206
 42
-0.045476
  0
VERTEX
  8
0
 10
640.200604
 20
874.827868
 42
-0.048929
  0
VERTEX
  8
0
 10
640.813724
 20
876.944482
 42
-0.039752
  0
VERTEX
  8
0
 10
641.946748
 20
879.235973
 42
-0.017788
  0
VERTEX
  8
0
 10
643.774508
 20
882.061138
 42
-0.067002
  0
VERTEX
  8
0
 10
649.193361
 20
887.952910
 42
-0.101237
  0
VERTEX
  8
0
 10
655.317994
 20
891.232274
 42
-0.099488
  0
VERTEX
  8
0
 10
662.318744
 20
891.874536
 42
-0.062879
  0
VERTEX
  8
0
 10
670.326465
 20
889.979043
 42
-0.027452
  0
VERTEX
  8
0
 10
674.503348
 20
888.149148
 42
-0.081139
  0
VERTEX
  8
0
 10
677.026883
 20
886.310249
 42
-0.104943
  0
VERTEX
  8
0
 10
678.468193
 20
884.061724
 42
-0.066803
  0
VERTEX
  8
0
 10
679.171821
 20
881.022351
 42
0.040237
  0
VERTEX
  8
0
 10
679.518894
 20
879.053860
 42
0.121565
  0
VERTEX
  8
0
 10
680.163414
 20
877.865317
 42
0.098704
  0
VERTEX
  8
0
 10
681.371159
 20
876.975101
 42
0.021460
  0
VERTEX
  8
0
 10
683.771701
 20
875.972872
 42
-0.024775
  0
VERTEX
  8
0
 10
685.570488
 20
875.207844
 42
-0.019361
  0
VERTEX
  8
0
 10
687.443153
 20
874.208067
 42
-0.019744
  0
VERTEX
  8
0
 10
689.117035
 20
873.138506
 42
-0.044389
  0
VERTEX
  8
0
 10
690.271701
 20
872.172274
 42
-0.125395
  0
VERTEX
  8
0
 10
691.967218
 20
869.316626
 42
-0.081465
  0
VERTEX
  8
0
 10
692.443440
 20
865.487908
 42
-0.069417
  0
VERTEX
  8
0
 10
691.660042
 20
861.119262
 42
-0.053562
  0
VERTEX
  8
0
 10
689.670731
 20
856.701118
 42
-0.073004
  0
VERTEX
  8
0
 10
686.570693
 20
852.834795
 42
-0.080009
  0
VERTEX
  8
0
 10
682.577874
 20
850.164108
 42
-0.059381
  0
VERTEX
  8
0
 10
676.996745
 20
848.368758
 42
-0.022098
  0
VERTEX
  8
0
 10
668.832633
 20
847.148092
 42
0.017525
  0
VERTEX
  8
0
 10
662.129361
 20
846.208417
 42
0.042770
  0
VERTEX
  8
0
 10
657.314371
 20
844.928514
 42
0.060951
  0
VERTEX
  8
0
 10
654.008210
 20
843.261358
 42
0.123269
  0
VERTEX
  8
0
 10
652.061822
 20
841.115516
 42
0.057029
  0
VERTEX
  8
0
 10
651.675683
 20
840.141581
 42
0.119223
  0
VERTEX
  8
0
 10
651.654449
 20
839.331364
 42
0.113018
  0
VERTEX
  8
0
 10
652.008042
 20
838.572830
 42
0.048180
  0
VERTEX
  8
0
 10
652.782178
 20
837.754366
 42
0.079965
  0
VERTEX
  8
0
 10
657.556799
 20
834.778524
 42
0.089917
  0
VERTEX
  8
0
 10
662.833435
 20
833.607392
 42
0.086121
  0
VERTEX
  8
0
 10
668.368606
 20
834.346608
 42
0.066582
  0
VERTEX
  8
0
 10
673.890272
 20
836.929588
 42
-0.017309
  0
VERTEX
  8
0
 10
677.020782
 20
838.788717
 42
-0.062250
  0
VERTEX
  8
0
 10
679.176461
 20
839.642109
 42
-0.063139
  0
VERTEX
  8
0
 10
681.460135
 20
839.932546
 42
-0.018151
  0
VERTEX
  8
0
 10
685.027513
 20
839.804391
 42
-0.021956
  0
VERTEX
  8
0
 10
688.152913
 20
839.439851
 42
-0.040487
  0
VERTEX
  8
0
 10
690.636357
 20
838.829615
 42
-0.043286
  0
VERTEX
  8
0
 10
692.876515
 20
837.860242
 42
-0.029435
  0
VERTEX
  8
0
 10
695.240390
 20
836.398656
 42
-0.038655
  0
VERTEX
  8
0
 10
699.099082
 20
833.214642
 42
-0.057613
  0
VERTEX
  8
0
 10
701.876931
 20
829.838857
 42
-0.070251
  0
VERTEX
  8
0
 10
703.408313
 20
826.527442
 42
-0.122978
  0
VERTEX
  8
0
 10
703.552919
 20
823.527485
 42
-0.095246
  0
VERTEX
  8
0
 10
702.456147
 20
820.832355
 42
-0.035222
  0
VERTEX
  8
0
 10
699.974866
 20
817.546707
 42
-0.032317
  0
VERTEX
  8
0
 10
697.183044
 20
814.734946
 42
-0.183092
  0
VERTEX
  8
0
 10
695.243281
 20
814.000000
 42
0.274084
  0
VERTEX
  8
0
 10
694.608857
 20
813.623981
 42
0.101576
  0
VERTEX
  8
0
 10
694.291643
 20
812.592237
 42
0.041142
  0
VERTEX
  8
0
 10
694.265014
 20
810.632506
 42
0.007393
  0
VERTEX
  8
0
 10
694.569566
 20
806.990794
 42
0.000000
  0
VERTEX
  8
0
 10
695.260235
 20
799.981588
 42
0.000000
  0
VERTEX
  8
0
 10
691.674690
 20
796.599983
 42
-0.074999
  0
VERTEX
  8
0
 10
686.485713
 20
793.000910
 42
-0.058613
  0
VERTEX
  8
0
 10
680.012339
 20
790.713890
 42
-0.059164
  0
VERTEX
  8
0
 10
673.255185
 20
790.006372
 42
-0.080565
  0
VERTEX
  8
0
 10
667.231082
 20
791.069289
 42
-0.088881
  0
VERTEX
  8
0
 10
665.441746
 20
792.076580
 42
-0.047116
  0
VERTEX
  8
0
 10
663.634302
 20
793.879633
 42
-0.029903
  0
VERTEX
  8
0
 10
661.501886
 20
796.787985
 42
-0.008712
  0
VERTEX
  8
0
 10
658.572451
 20
801.508062
 42
0.010110
  0
VERTEX
  8
0
 10
656.157686
 20
805.374704
 42
0.009345
  0
VERTEX
  8
0
 10
653.526126
 20
809.244808
 42
0.009377
  0
VERTEX
  8
0
 10
651.054096
 20
812.602709
 42
0.030534
  0
VERTEX
  8
0
 10
649.245038
 20
814.688773
 42
0.000000
  0
VERTEX
  8
0
 10
645.508891
 20
818.500000
 42
0.000000
  0
VERTEX
  8
0
 10
645.189671
 20
815.231016
 42
-0.048910
  0
VERTEX
  8
0
 10
644.750050
 20
813.006192
 42
-0.434479
  0
VERTEX
  8
0
 10
643.949397
 20
812.611279
 42
-0.269603
  0
VERTEX
  8
0
 10
643.197020
 20
813.536760
 42
-0.038997
  0
VERTEX
  8
0
 10
643.000000
 20
816.059017
 42
0.032038
  0
VERTEX
  8
0
 10
642.906490
 20
817.516862
 42
0.116689
  0
VERTEX
  8
0
 10
642.581608
 20
818.378841
 42
0.163828
  0
VERTEX
  8
0
 10
641.977593
 20
818.841133
 42
0.082308
  0
VERTEX
  8
0
 10
641.019052
 20
819.000000
 42
0.221429
  0
VERTEX
  8
0
 10
639.252942
 20
818.177538
 42
0.161813
  0
VERTEX
  8
0
 10
638.442441
 20
816.138243
 42
0.082061
  0
VERTEX
  8
0
 10
638.805617
 20
812.734654
 42
0.028983
  0
VERTEX
  8
0
 10
640.390768
 20
808.076543
 42
0.016841
  0
VERTEX
  8
0
 10
641.611414
 20
805.340499
 42
0.010940
  0
VERTEX
  8
0
 10
643.195760
 20
802.261212
 42
0.011003
  0
VERTEX
  8
0
 10
644.876226
 20
799.319939
 42
0.020478
  0
VERTEX
  8
0
 10
646.385558
 20
797.026410
 42
-0.033245
  0
VERTEX
  8
0
 10
648.964513
 20
792.880936
 42
-0.044655
  0
VERTEX
  8
0
 10
650.689520
 20
788.810026
 42
-0.044600
  0
VERTEX
  8
0
 10
651.665712
 20
784.493483
 42
-0.033044
  0
VERTEX
  8
0
 10
651.994423
 20
779.609665
 42
-0.038185
  0
VERTEX
  8
0
 10
651.759504
 20
776.491322
 42
-0.099408
  0
VERTEX
  8
0
 10
650.992041
 20
774.386827
 42
-0.055430
  0
VERTEX
  8
0
 10
649.220582
 20
772.097731
 42
-0.006040
  0
VERTEX
  8
0
 10
644.519979
 20
767.359665
 42
-0.011575
  0
VERTEX
  8
0
 10
641.518906
 20
764.540580
 42
-0.015973
  0
VERTEX
  8
0
 10
638.689373
 20
762.161902
 42
-0.012554
  0
VERTEX
  8
0
 10
636.260313
 20
760.345807
 42
-0.155457
  0
VERTEX
  8
0
 10
635.174967
 20
760.000000
 42
-0.084008
  0
VERTEX
  8
0
 10
634.330179
 20
760.142946
 42
-0.040811
  0
VERTEX
  8
0
 10
633.326136
 20
760.587500
 42
-0.038966
  0
VERTEX
  8
0
 10
632.330277
 20
761.234686
 42
-0.045294
  0
VERTEX
  8
0
 10
631.500000
 20
762.000000
 42
0.070134
  0
VERTEX
  8
0
 10
629.885385
 20
763.346761
 42
0.122560
  0
VERTEX
  8
0
 10
628.236604
 20
763.877191
 42
0.117692
  0
VERTEX
  8
0
 10
626.484185
 20
763.581865
 42
0.061652
  0
VERTEX
  8
0
 10
624.558870
 20
762.468197
 42
-0.123531
  0
VERTEX
  8
0
 10
622.022226
 20
761.390502
 42
-0.037250
  0
VERTEX
  8
0
 10
617.815379
 20
761.047043
 42
-0.037723
  0
VERTEX
  8
0
 10
613.319497
 20
761.355105
 42
-0.063072
  0
VERTEX
  8
0
 10
609.671190
 20
762.364026
 42
-0.129626
  0
VERTEX
  8
0
 10
603.349910
 20
767.205437
 42
-0.070033
  0
VERTEX
  8
0
 10
598.449690
 20
775.772800
 42
-0.068446
  0
VERTEX
  8
0
 10
596.006837
 20
785.625630
 42
-0.106684
  0
VERTEX
  8
0
 10
596.930483
 20
794.289362
 42
-0.076158
  0
VERTEX
  8
0
 10
598.276861
 20
796.934668
 42
-0.034370
  0
VERTEX
  8
0
 10
600.765590
 20
799.940686
 42
-0.030135
  0
VERTEX
  8
0
 10
604.134610
 20
803.081135
 42
-0.022116
  0
VERTEX
  8
0
 10
608.214750
 20
806.156058
 42
0.071572
  0
VERTEX
  8
0
 10
609.232554
 20
807.093829
 42
0.031734
  0
VERTEX
  8
0
 10
610.296097
 20
808.583720
 42
0.030569
  0
VERTEX
  8
0
 10
611.241829
 20
810.334008
 42
0.035809
  0
VERTEX
  8
0
 10
611.911233
 20
812.098059
 42
0.012432
  0
VERTEX
  8
0
 10
612.596385
 20
814.610456
 42
0.083028
  0
VERTEX
  8
0
 10
612.694051
 20
815.898209
 42
0.146398
  0
VERTEX
  8
0
 10
612.331940
 20
816.802953
 42
0.067097
  0
VERTEX
  8
0
 10
611.406537
 20
817.692001
 42
0.164326
  0
VERTEX
  8
0
 10
607.967837
 20
818.776968
 42
0.117562
  0
VERTEX
  8
0
 10
604.033651
 20
817.754955
 42
0.091028
  0
VERTEX
  8
0
 10
600.175971
 20
814.700164
 42
0.062012
  0
VERTEX
  8
0
 10
597.028567
 20
810.055996
 42
-0.055275
  0
VERTEX
  8
0
 10
594.287496
 20
805.892071
 42
-0.051567
  0
VERTEX
  8
0
 10
590.642275
 20
802.320918
 42
-0.053898
  0
VERTEX
  8
0
 10
586.534243
 20
799.720142
 42
-0.077117
  0
VERTEX
  8
0
 10
582.425013
 20
798.436484
 42
-0.067796
  0
VERTEX
  8
0
 10
575.458702
 20
798.342669
 42
-0.071726
  0
VERTEX
  8
0
 10
568.862348
 20
800.133679
 42
-0.073805
  0
VERTEX
  8
0
 10
563.196436
 20
803.651852
 42
-0.078714
  0
VERTEX
  8
0
 10
558.939909
 20
808.597229
 42
-0.019743
  0
VERTEX
  8
0
 10
557.616767
 20
810.940132
 42
-0.101199
  0
VERTEX
  8
0
 10
557.216377
 20
812.370689
 42
-0.090128
  0
VERTEX
  8
0
 10
557.385295
 20
813.920269
 42
-0.013945
  0
VERTEX
  8
0
 10
558.350064
 20
816.868639
 42
0.005058
  0
VERTEX
  8
0
 10
558.985465
 20
818.699690
 42
0.006821
  0
VERTEX
  8
0
 10
559.520865
 20
820.369642
 42
0.004810
  0
VERTEX
  8
0
 10
559.935613
 20
821.774897
 42
0.071041
  0
VERTEX
  8
0
 10
560.004946
 20
822.283333
 42
0.161738
  0
VERTEX
  8
0
 10
559.847103
 20
822.748687
 42
0.010220
  0
VERTEX
  8
0
 10
558.939987
 20
823.898029
 42
0.014186
  0
VERTEX
  8
0
 10
557.771164
 20
825.238879
 42
0.010017
  0
VERTEX
  8
0
 10
556.386498
 20
826.680169
 42
-0.019077
  0
VERTEX
  8
0
 10
554.346622
 20
828.881937
 42
-0.082938
  0
VERTEX
  8
0
 10
553.429691
 20
830.399188
 42
-0.094257
  0
VERTEX
  8
0
 10
553.115033
 20
832.034016
 42
-0.028615
  0
VERTEX
  8
0
 10
553.254454
 20
834.565149
 42
-0.058430
  0
VERTEX
  8
0
 10
554.300933
 20
839.055403
 42
-0.072294
  0
VERTEX
  8
0
 10
556.319970
 20
842.840402
 42
-0.069991
  0
VERTEX
  8
0
 10
559.393219
 20
845.983742
 42
-0.050519
  0
VERTEX
  8
0
 10
563.563077
 20
848.574662
 42
-0.057143
  0
VERTEX
  8
0
 10
568.940320
 20
850.481946
 42
-0.070854
  0
VERTEX
  8
0
 10
574.225975
 20
850.933467
 42
-0.073189
  0
VERTEX
  8
0
 10
579.290225
 20
849.894377
 42
-0.066685
  0
VERTEX
  8
0
 10
584.018630
 20
847.422719
 42
0.015622
  0
VERTEX
  8
0
 10
589.367622
 20
843.890697
 42
0.035646
  0
VERTEX
  8
0
 10
593.653209
 20
841.653638
 42
0.046236
  0
VERTEX
  8
0
 10
597.419082
 20
840.416439
 42
0.056313
  0
VERTEX
  8
0
 10
601.104901
 20
840.000000
 42
0.019072
  0
VERTEX
  8
0
 10
603.319026
 20
840.084485
 42
0.053645
  0
VERTEX
  8
0
 10
604.841032
 20
840.366894
 42
0.083965
  0
VERTEX
  8
0
 10
605.835833
 20
840.857523
 42
0.145684
  0
VERTEX
  8
0
 10
606.393011
 20
841.581787
 42
0.134457
  0
VERTEX
  8
0
 10
606.752930
 20
845.201894
 42
0.164756
  0
VERTEX
  8
0
 10
605.147391
 20
848.177534
 42
0.090337
  0
VERTEX
  8
0
 10
601.074069
 20
850.784038
 42
0.022968
  0
VERTEX
  8
0
 10
593.655384
 20
853.434425
 42
-0.049240
  0
VERTEX
  8
0
 10
584.754414
 20
857.151594
 42
-0.092542
  0
VERTEX
  8
0
 10
578.708534
 20
862.026252
 42
-0.103225
  0
VERTEX
  8
0
 10
575.235415
 20
868.354254
 42
-0.073257
  0
VERTEX
  8
0
 10
574.021962
 20
876.383980
 42
-0.027925
  0
VERTEX
  8
0
 10
574.280362
 20
881.338956
 42
-0.039436
  0
VERTEX
  8
0
 10
575.100776
 20
885.680437
 42
-0.044643
  0
VERTEX
  8
0
 10
576.469729
 20
889.375240
 42
-0.060022
  0
VERTEX
  8
0
 10
578.375696
 20
892.388766
 42
-0.063953
  0
VERTEX
  8
0
 10
579.892280
 20
893.827926
 42
-0.085238
  0
VERTEX
  8
0
 10
581.589889
 20
894.671993
 42
-0.046660
  0
VERTEX
  8
0
 10
584.166483
 20
895.189191
 42
-0.007676
  0
VERTEX
  8
0
 10
589.228921
 20
895.643455
 42
0.006995
  0
VERTEX
  8
0
 10
593.955211
 20
896.061068
 42
0.039952
  0
VERTEX
  8
0
 10
596.431432
 20
896.516739
 42
0.086383
  0
VERTEX
  8
0
 10
597.822445
 20
897.161742
 42
0.165729
  0
VERTEX
  8
0
 10
598.544430
 20
898.139987
 42
-0.077610
  0
VERTEX
  8
0
 10
599.654033
 20
900.367018
 42
-0.106586
  0
VERTEX
  8
0
 10
601.299503
 20
901.873332
 42
-0.090053
  0
VERTEX
  8
0
 10
603.641431
 20
902.726306
 42
-0.042442
  0
VERTEX
  8
0
 10
606.859987
 20
903.000000
 42
-0.031997
  0
VERTEX
  8
0
 10
608.926642
 20
902.867609
 42
-0.022038
  0
VERTEX
  8
0
 10
611.239161
 20
902.465851
 42
-0.022285
  0
VERTEX
  8
0
 10
613.438655
 20
901.879216
 42
-0.041592
  0
SEQEND
  0
POLYLINE
  8
0
 66
1
 70
1
  0
VERTEX
  8
0
 10
567.224259
 20
866.338147
 42
-0.024837
  0
VERTEX
  8
0
 10
569.515070
 20
865.925535
 42
-0.052758
  0
VERTEX
  8
0
 10
571.215547
 20
865.336826
 42
-0.066602
  0
VERTEX
  8
0
 10
572.489777
 20
864.517003
 42
-0.071632
  0
VERTEX
  8
0
 10
573.467915
 20
863.408623
 42
0.061367
  0
VERTEX
  8
0
 10
576.679703
 20
859.615673
 42
0.043053
  0
VERTEX
  8
0
 10
581.107155
 20
856.182763
 42
0.039105
  0
VERTEX
  8
0
 10
586.536338
 20
853.249721
 42
0.031653
  0
VERTEX
  8
0
 10
592.750000
 20
850.954339
 42
-0.014661
  0
VERTEX
  8
0
 10
595.553505
 20
850.025616
 42
-0.132505
  0
VERTEX
  8
0
 10
596.600410
 20
849.289717
 42
-0.219447
  0
VERTEX
  8
0
 10
596.865588
 20
848.303164
 42
-0.049277
  0
VERTEX
  8
0
 10
596.393011
 20
846.581787
 42
-0.184812
  0
VERTEX
  8
0
 10
595.371961
 20
845.445214
 42
-0.191259
  0
VERTEX
  8
0
 10
593.870587
 20
845.301492
 42
-0.064529
  0
VERTEX
  8
0
 10
591.346950
 20
846.402537
 42
-0.008636
  0
VERTEX
  8
0
 10
586.413702
 20
849.478602
 42
0.011626
  0
VERTEX
  8
0
 10
582.275534
 20
852.024666
 42
0.048967
  0
VERTEX
  8
0
 10
579.628817
 20
853.239986
 42
0.059561
  0
VERTEX
  8
0
 10
577.054305
 20
853.798488
 42
0.022790
  0
VERTEX
  8
0
 10
573.386842
 20
853.978602
 42
-0.016573
  0
VERTEX
  8
0
 10
569.492170
 20
854.121378
 42
-0.091233
  0
VERTEX
  8
0
 10
567.465875
 20
854.642553
 42
-0.083701
  0
VERTEX
  8
0
 10
565.678694
 20
855.867131
 42
-0.012760
  0
VERTEX
  8
0
 10
562.636842
 20
858.957159
 42
-0.030578
  0
VERTEX
  8
0
 10
559.522865
 20
862.723328
 42
-0.090253
  0
VERTEX
  8
0
 10
558.068591
 20
865.735959
 42
-0.298643
  0
VERTEX
  8
0
 10
558.553370
 20
867.245667
 42
-0.244111
  0
VERTEX
  8
0
 10
560.250000
 20
867.591021
 42
0.019187
  0
VERTEX
  8
0
 10
561.428276
 20
867.303079
 42
0.005891
  0
VERTEX
  8
0
 10
563.226814
 20
866.958065
 42
0.005885
  0
VERTEX
  8
0
 10
565.250531
 20
866.619056
 42
0.006416
  0
SEQEND
  0
POLYLINE
  8
0
 66
1
 70
1
  0
VERTEX
  8
0
 10
699.976403
 20
852.816089
 42
0.000000
  0
VERTEX
  8
0
 10
705.105387
 20
851.632177
 42
0.000000
  0
VERTEX
  8
0
 10
699.490346
 20
846.364544
 42
-0.008596
  0
VERTEX
  8
0
 10
696.206535
 20
843.388371
 42
-0.057672
  0
VERTEX
  8
0
 10
694.397500
 20
842.140393
 42
-0.118959
  0
VERTEX
  8
0
 10
692.957048
 20
841.769722
 42
-0.094878
  0
VERTEX
  8
0
 10
691.372553
 20
842.048455
 42
0.070669
  0
VERTEX
  8
0
 10
686.989182
 20
843.038878
 42
0.052443
  0
VERTEX
  8
0
 10
682.019069
 20
842.921196
 42
0.047191
  0
VERTEX
  8
0
 10
676.665943
 20
841.708521
 42
0.036712
  0
VERTEX
  8
0
 10
671.143438
 20
839.435370
 42
-0.010789
  0
VERTEX
  8
0
 10
668.346403
 20
838.110736
 42
-0.016074
  0
VERTEX
  8
0
 10
665.840791
 20
837.084981
 42
-0.011098
  0
VERTEX
  8
0
 10
663.753355
 20
836.360107
 42
-0.219844
  0
VERTEX
  8
0
 10
663.097578
 20
836.439694
 42
-0.199951
  0
VERTEX
  8
0
 10
662.795380
 20
836.860741
 42
-0.067517
  0
VERTEX
  8
0
 10
662.723834
 20
837.627834
 42
-0.050779
  0
VERTEX
  8
0
 10
662.870092
 20
838.641474
 42
-0.029046
  0
VERTEX
  8
0
 10
663.239168
 20
839.822673
 42
-0.074775
  0
VERTEX
  8
0
 10
664.138821
 20
841.430300
 42
-0.124406
  0
VERTEX
  8
0
 10
665.354619
 20
842.381292
 42
-0.060408
  0
VERTEX
  8
0
 10
667.468948
 20
843.025108
 42
-0.007545
  0
VERTEX
  8
0
 10
672.212935
 20
843.789825
 42
0.033710
  0
VERTEX
  8
0
 10
678.442897
 20
845.131556
 42
0.037068
  0
VERTEX
  8
0
 10
684.234288
 20
847.269399
 42
0.038833
  0
VERTEX
  8
0
 10
688.744417
 20
849.764743
 42
0.171781
  0
VERTEX
  8
0
 10
690.546904
 20
852.147780
 42
-0.159696
  0
VERTEX
  8
0
 10
691.421085
 20
853.361854
 42
-0.140737
  0
VERTEX
  8
0
 10
692.891678
 20
853.899318
 42
-0.062973
  0
VERTEX
  8
0
 10
695.405743
 20
853.760843
 42
-0.011513
  0
SEQEND
  0
POLYLINE
  8
0
 66
1
 70
1
  0
VERTEX
  8
0
 10
604.444347
 20
806.938504
 42
-0.035196
  0
VERTEX
  8
0
 10
602.706129
 20
805.270226
 42
-0.040400
  0
VERTEX
  8
0
 10
600.825532
 20
803.945314
 42
-0.042894
  0
VERTEX
  8
0
 10
599.173045
 20
803.152653
 42
-0.294855
  0
VERTEX
  8
0
 10
598.333333
 20
803.333333
 42
-0.296160
  0
VERTEX
  8
0
 10
598.166516
 20
804.117772
 42
-0.024463
  0
VERTEX
  8
0
 10
599.049733
 20
806.121097
 42
-0.029899
  0
VERTEX
  8
0
 10
600.325050
 20
808.328286
 42
-0.033486
  0
VERTEX
  8
0
 10
601.811657
 20
810.281128
 42
-0.026303
  0
VERTEX
  8
0
 10
602.742979
 20
811.241188
 42
-0.165544
  0
VERTEX
  8
0
 10
603.357206
 20
811.515401
 42
-0.186443
  0
VERTEX
  8
0
 10
603.969937
 20
811.341276
 42
-0.034981
  0
VERTEX
  8
0
 10
604.866316
 20
810.562256
 42
-0.045720
  0
VERTEX
  8
0
 10
605.623751
 20
809.652009
 42
-0.181600
  0
VERTEX
  8
0
 10
605.795988
 20
808.958297
 42
-0.134515
  0
VERTEX
  8
0
 10
605.488209
 20
808.195145
 42
-0.021201
  0
SEQEND
  0
POLYLINE
  8
0
 66
1
 70
1
  0
VERTEX
  8
0
 10
654.998195
 20
802.003732
 42
0.021958
  0
VERTEX
  8
0
 10
657.621390
 20
797.138452
 42
0.043257
  0
VERTEX
  8
0
 10
660.189210
 20
793.578305
 42
0.050872
  0
VERTEX
  8
0
 10
663.019941
 20
790.899543
 42
0.046402
  0
VERTEX
  8
0
 10
666.418238
 20
788.752715
 42
-0.058754
  0
VERTEX
  8
0
 10
668.140582
 20
787.604334
 42
-0.144505
  0
VERTEX
  8
0
 10
668.963752
 20
786.343340
 42
-0.065050
  0
VERTEX
  8
0
 10
669.305307
 20
784.245510
 42
-0.005471
  0
VERTEX
  8
0
 10
669.418238
 20
778.747565
 42
0.000000
  0
VERTEX
  8
0
 10
669.500000
 20
770.227318
 42
0.000000
  0
VERTEX
  8
0
 10
665.892187
 20
773.085074
 42
-0.024122
  0
VERTEX
  8
0
 10
661.461618
 20
776.956437
 42
-0.037083
  0
VERTEX
  8
0
 10
658.065645
 20
780.748966
 42
-0.044013
  0
VERTEX
  8
0
 10
655.763028
 20
784.355732
 42
-0.080588
  0
VERTEX
  8
0
 10
654.670454
 20
787.659406
 42
0.054046
  0
VERTEX
  8
0
 10
654.124958
 20
789.657208
 42
0.017056
  0
VERTEX
  8
0
 10
652.893731
 20
792.500540
 42
0.016800
  0
VERTEX
  8
0
 10
651.292760
 20
795.603295
 42
0.017800
  0
VERTEX
  8
0
 10
649.515718
 20
798.530906
 42
-0.004011
  0
VERTEX
  8
0
 10
647.785159
 20
801.212365
 42
-0.006070
  0
VERTEX
  8
0
 10
646.326492
 20
803.575790
 42
-0.002613
  0
VERTEX
  8
0
 10
645.119823
 20
805.609085
 42
-0.133374
  0
VERTEX
  8
0
 10
645.000000
 20
806.050292
 42
-0.259578
  0
VERTEX
  8
0
 10
645.357949
 20
806.693317
 42
-0.019115
  0
VERTEX
  8
0
 10
647.176334
 20
807.726453
 42
-0.025956
  0
VERTEX
  8
0
 10
649.129952
 20
808.614289
 42
-0.077831
  0
VERTEX
  8
0
 10
650.556809
 20
808.932320
 42
-0.258846
  0
VERTEX
  8
0
 10
651.116122
 20
808.667213
 42
-0.012892
  0
VERTEX
  8
0
 10
652.297399
 20
806.924965
 42
-0.018062
  0
VERTEX
  8
0
 10
653.624606
 20
804.680004
 42
-0.011806
  0
SEQEND
  0
POLYLINE
  8
0
 66
1
 70
1
  0
VERTEX
  8
0
 10
594.495218
 20
798.750000
 42
0.008973
  0
VERTEX
  8
0
 10
594.161873
 20
797.187960
 42
0.004097
  0
VERTEX
  8
0
 10
593.779964
 20
795.137118
 42
0.004055
  0
VERTEX
  8
0
 10
593.412768
 20
792.969500
 42
0.005573
  0
VERTEX
  8
0
 10
593.120218
 20
791.014657
 42
-0.017849
  0
VERTEX
  8
0
 10
592.650643
 20
788.329057
 42
-0.119320
  0
VERTEX
  8
0
 10
592.069509
 20
787.114600
 42
-0.149359
  0
VERTEX
  8
0
 10
591.056665
 20
786.435795
 42
-0.033127
  0
VERTEX
  8
0
 10
589.000000
 20
785.959257
 42
0.036690
  0
VERTEX
  8
0
 10
587.207566
 20
785.530479
 42
0.010939
  0
VERTEX
  8
0
 10
584.544529
 20
784.618240
 42
0.010908
  0
VERTEX
  8
0
 10
581.589380
 20
783.459386
 42
0.011589
  0
VERTEX
  8
0
 10
578.747332
 20
782.194600
 42
-0.006602
  0
VERTEX
  8
0
 10
571.736064
 20
778.990254
 42
-0.332887
  0
VERTEX
  8
0
 10
570.346974
 20
779.311427
 42
-0.295976
  0
VERTEX
  8
0
 10
570.158810
 20
780.804564
 42
-0.005726
  0
VERTEX
  8
0
 10
573.779247
 20
788.082398
 42
-0.008616
  0
VERTEX
  8
0
 10
576.295320
 20
792.796167
 42
-0.075663
  0
VERTEX
  8
0
 10
577.738977
 20
794.661802
 42
-0.109728
  0
VERTEX
  8
0
 10
579.476121
 20
795.709264
 42
-0.026383
  0
VERTEX
  8
0
 10
582.736439
 20
796.616053
 42
0.020195
  0
VERTEX
  8
0
 10
584.959919
 20
797.204936
 42
0.015066
  0
VERTEX
  8
0
 10
587.360625
 20
798.025677
 42
0.015289
  0
VERTEX
  8
0
 10
589.579432
 20
798.938049
 42
0.033184
  0
VERTEX
  8
0
 10
591.207192
 20
799.800102
 42
-0.003621
  0
VERTEX
  8
0
 10
594.178188
 20
801.605907
 42
-0.215243
  0
VERTEX
  8
0
 10
594.789126
 20
801.676405
 42
-0.381290
  0
VERTEX
  8
0
 10
595.034936
 20
801.259855
 42
-0.008191
  0
SEQEND
  0
POLYLINE
  8
0
 66
1
 70
1
  0
VERTEX
  8
0
 10
708.292632
 20
795.499971
 42
0.023865
  0
VERTEX
  8
0
 10
709.470588
 20
794.160101
 42
0.028991
  0
VERTEX
  8
0
 10
710.700574
 20
793.028116
 42
0.029761
  0
VERTEX
  8
0
 10
711.819943
 20
792.218018
 42
0.142696
  0
VERTEX
  8
0
 10
712.568312
 20
792.000000
 42
-0.118523
  0
VERTEX
  8
0
 10
713.244190
 20
791.837503
 42
-0.298837
  0
VERTEX
  8
0
 10
713.483470
 20
791.417773
 42
-0.094445
  0
VERTEX
  8
0
 10
713.268403
 20
790.578942
 42
-0.009866
  0
VERTEX
  8
0
 10
712.364432
 20
788.750000
 42
0.076060
  0
VERTEX
  8
0
 10
710.891305
 20
784.406002
 42
0.031770
  0
VERTEX
  8
0
 10
710.200789
 20
778.244376
 42
0.031709
  0
VERTEX
  8
0
 10
710.295362
 20
772.069081
 42
0.079434
  0
VERTEX
  8
0
 10
711.351541
 20
767.701070
 42
-0.017931
  0
VERTEX
  8
0
 10
712.339741
 20
765.075062
 42
-0.230885
  0
VERTEX
  8
0
 10
712.207855
 20
764.064345
 42
-0.184489
  0
VERTEX
  8
0
 10
711.308134
 20
763.418829
 42
-0.011006
  0
VERTEX
  8
0
 10
708.000000
 20
762.625163
 42
-0.058305
  0
VERTEX
  8
0
 10
706.508883
 20
762.480110
 42
-0.303403
  0
VERTEX
  8
0
 10
705.864696
 20
762.929059
 42
-0.102538
  0
VERTEX
  8
0
 10
705.658705
 20
764.139060
 42
-0.005241
  0
VERTEX
  8
0
 10
705.843580
 20
768.136045
 42
0.020496
  0
VERTEX
  8
0
 10
705.927859
 20
773.498018
 42
0.044322
  0
VERTEX
  8
0
 10
705.459652
 20
777.592473
 42
0.053097
  0
VERTEX
  8
0
 10
704.357745
 20
781.049813
 42
0.045431
  0
VERTEX
  8
0
 10
702.506196
 20
784.395732
 42
0.000000
  0
VERTEX
  8
0
 10
700.065281
 20
787.992621
 42
0.000000
  0
VERTEX
  8
0
 10
702.171423
 20
793.496311
 42
-0.009066
  0
VERTEX
  8
0
 10
703.022852
 20
795.605829
 42
-0.014220
  0
VERTEX
  8
0
 10
703.838431
 20
797.383283
 42
-0.008245
  0
VERTEX
  8
0
 10
704.572718
 20
798.810696
 42
-0.276553
  0
VERTEX
  8
0
 10
704.888783
 20
798.999971
 42
-0.192245
  0
VERTEX
  8
0
 10
705.244087
 20
798.858097
 42
-0.009891
  0
VERTEX
  8
0
 10
706.140790
 20
797.971833
 42
-0.014557
  0
VERTEX
  8
0
 10
707.178258
 20
796.840988
 42
-0.009947
  0
SEQEND
  0
POLYLINE
  8
0
 66
1
 70
1
  0
VERTEX
  8
0
 10
740.449548
 20
795.837443
 42
-0.067679
  0
VERTEX
  8
0
 10
740.624934
 20
795.567780
 42
-0.001605
  0
VERTEX
  8
0
 10
741.264212
 20
794.203811
 42
-0.003504
  0
VERTEX
  8
0
 10
741.998467
 20
792.594609
 42
-0.002369
  0
VERTEX
  8
0
 10
742.814094
 20
790.750000
 42
0.018122
  0
VERTEX
  8
0
 10
743.688202
 20
788.930358
 42
0.026118
  0
VERTEX
  8
0
 10
744.600627
 20
787.395313
 42
0.024359
  0
VERTEX
  8
0
 10
745.444032
 20
786.255937
 42
0.224897
  0
VERTEX
  8
0
 10
745.984262
 20
786.000000
 42
0.104421
  0
VERTEX
  8
0
 10
746.580809
 20
786.125957
 42
0.018867
  0
VERTEX
  8
0
 10
747.605130
 20
786.625702
 42
0.019608
  0
VERTEX
  8
0
 10
748.778586
 20
787.314583
 42
0.016647
  0
VERTEX
  8
0
 10
749.962032
 20
788.130050
 42
0.000000
  0
VERTEX
  8
0
 10
752.843080
 20
790.260101
 42
0.000000
  0
VERTEX
  8
0
 10
756.209630
 20
788.179458
 42
-0.098417
  0
VERTEX
  8
0
 10
760.469090
 20
784.213138
 42
-0.084777
  0
VERTEX
  8
0
 10
763.164873
 20
778.712279
 42
-0.082921
  0
VERTEX
  8
0
 10
763.918847
 20
772.514452
 42
-0.088070
  0
VERTEX
  8
0
 10
762.583526
 20
766.545662
 42
-0.072046
  0
VERTEX
  8
0
 10
760.859984
 20
763.667900
 42
-0.087041
  0
VERTEX
  8
0
 10
758.482483
 20
761.609084
 42
-0.055922
  0
VERTEX
  8
0
 10
754.746548
 20
759.903324
 42
-0.014088
  0
VERTEX
  8
0
 10
748.325959
 20
757.998440
 42
0.036265
  0
VERTEX
  8
0
 10
741.884501
 20
755.772367
 42
0.052744
  0
VERTEX
  8
0
 10
736.644171
 20
752.836838
 42
0.065416
  0
VERTEX
  8
0
 10
733.138996
 20
749.593231
 42
0.175131
  0
VERTEX
  8
0
 10
732.000000
 20
746.441129
 42
0.201668
  0
VERTEX
  8
0
 10
732.975599
 20
744.120673
 42
0.207676
  0
VERTEX
  8
0
 10
735.300243
 20
743.231654
 42
0.086656
  0
VERTEX
  8
0
 10
739.425367
 20
744.141734
 42
0.021696
  0
VERTEX
  8
0
 10
745.706173
 20
747.048167
 42
-0.010220
  0
VERTEX
  8
0
 10
750.615723
 20
749.458324
 42
-0.038548
  0
VERTEX
  8
0
 10
753.821256
 20
750.660705
 42
-0.047571
  0
VERTEX
  8
0
 10
756.821871
 20
751.227600
 42
-0.021788
  0
VERTEX
  8
0
 10
760.804989
 20
751.419277
 42
-0.057859
  0
VERTEX
  8
0
 10
768.556479
 20
750.554736
 42
-0.117791
  0
VERTEX
  8
0
 10
774.011869
 20
747.843961
 42
-0.133575
  0
VERTEX
  8
0
 10
777.231413
 20
743.233118
 42
-0.085332
  0
VERTEX
  8
0
 10
778.368144
 20
736.755747
 42
-0.027627
  0
VERTEX
  8
0
 10
778.247279
 20
734.423105
 42
-0.042041
  0
VERTEX
  8
0
 10
777.862243
 20
732.432224
 42
-0.046099
  0
VERTEX
  8
0
 10
777.186173
 20
730.674613
 42
-0.044354
  0
VERTEX
  8
0
 10
776.192308
 20
729.046240
 42
0.007661
  0
VERTEX
  8
0
 10
775.352436
 20
727.873070
 42
0.010844
  0
VERTEX
  8
0
 10
774.643990
 20
726.801847
 42
0.007197
  0
VERTEX
  8
0
 10
774.087916
 20
725.891247
 42
0.134256
  0
VERTEX
  8
0
 10
774.000000
 20
725.569729
 42
0.137760
  0
VERTEX
  8
0
 10
774.095475
 20
725.229779
 42
0.003854
  0
VERTEX
  8
0
 10
774.906391
 20
723.922747
 42
0.007616
  0
VERTEX
  8
0
 10
775.903214
 20
722.395427
 42
0.005127
  0
VERTEX
  8
0
 10
777.085586
 20
720.680917
 42
-0.014419
  0
VERTEX
  8
0
 10
778.900057
 20
717.942301
 42
-0.084624
  0
VERTEX
  8
0
 10
779.549551
 20
716.350779
 42
-0.102151
  0
VERTEX
  8
0
 10
779.573300
 20
714.770405
 42
-0.025637
  0
VERTEX
  8
0
 10
778.957873
 20
712.253730
 42
-0.052603
  0
VERTEX
  8
0
 10
777.568951
 20
708.933560
 42
-0.048744
  0
VERTEX
  8
0
 10
775.487950
 20
705.883445
 42
-0.051100
  0
VERTEX
  8
0
 10
772.983055
 20
703.442119
 42
-0.076930
  0
VERTEX
  8
0
 10
770.336949
 20
701.938008
 42
-0.043235
  0
VERTEX
  8
0
 10
769.069720
 20
701.577853
 42
-0.015587
  0
VERTEX
  8
0
 10
767.218336
 20
701.280372
 42
-0.015326
  0
VERTEX
  8
0
 10
765.159499
 20
701.079003
 42
-0.017592
  0
VERTEX
  8
0
 10
763.184900
 20
701.016450
 42
-0.066898
  0
VERTEX
  8
0
 10
758.534696
 20
701.658059
 42
-0.069057
  0
VERTEX
  8
0
 10
754.272962
 20
703.503260
 42
-0.063555
  0
VERTEX
  8
0
 10
750.396381
 20
706.596235
 42
-0.044879
  0
VERTEX
  8
0
 10
746.885645
 20
710.931223
 42
0.041788
  0
VERTEX
  8
0
 10
743.833811
 20
714.747471
 42
0.057101
  0
VERTEX
  8
0
 10
740.466074
 20
717.576230
 42
0.062110
  0
VERTEX
  8
0
 10
736.789921
 20
719.399851
 42
0.064398
  0
VERTEX
  8
0
 10
732.823383
 20
720.236242
 42
0.024739
  0
VERTEX
  8
0
 10
730.843264
 20
720.295127
 42
0.172200
  0
VERTEX
  8
0
 10
729.950773
 20
719.958381
 42
0.170759
  0
VERTEX
  8
0
 10
729.466237
 20
719.132717
 42
0.024236
  0
VERTEX
  8
0
 10
729.179599
 20
717.155578
 42
0.115586
  0
VERTEX
  8
0
 10
729.691533
 20
713.376329
 42
0.070490
  0
VERTEX
  8
0
 10
731.883011
 20
709.417120
 42
0.052966
  0
VERTEX
  8
0
 10
735.793579
 20
705.237196
 42
0.026343
  0
VERTEX
  8
0
 10
741.529971
 20
700.783564
 42
-0.031269
  0
VERTEX
  8
0
 10
747.132550
 20
696.344743
 42
-0.072131
  0
VERTEX
  8
0
 10
750.562216
 20
692.225052
 42
-0.083496
  0
VERTEX
  8
0
 10
752.388233
 20
687.701046
 42
-0.054309
  0
VERTEX
  8
0
 10
753.000000
 20
682.085405
 42
-0.045261
  0
VERTEX
  8
0
 10
752.582523
 20
677.482957
 42
-0.062078
  0
VERTEX
  8
0
 10
751.335557
 20
673.520956
 42
-0.071300
  0
VERTEX
  8
0
 10
749.343026
 20
670.421022
 42
-0.095265
  0
VERTEX
  8
0
 10
746.721436
 20
668.355949
 42
-0.059969
  0
VERTEX
  8
0
 10
743.894254
 20
667.299996
 42
-0.050103
  0
VERTEX
  8
0
 10
740.718059
 20
666.860372
 42
-0.051811
  0
VERTEX
  8
0
 10
737.648103
 20
667.063636
 42
-0.080612
  0
VERTEX
  8
0
 10
735.144645
 20
667.922588
 42
0.093271
  0
VERTEX
  8
0
 10
733.777745
 20
668.353512
 42
0.074633
  0
VERTEX
  8
0
 10
732.231701
 20
668.307739
 42
0.044126
  0
VERTEX
  8
0
 10
730.131859
 20
667.733858
 42
0.010853
  0
VERTEX
  8
0
 10
726.801967
 20
666.416649
 42
-0.016571
  0
VERTEX
  8
0
 10
723.499834
 20
665.153887
 42
-0.034937
  0
VERTEX
  8
0
 10
720.851420
 20
664.442924
 42
-0.040425
  0
VERTEX
  8
0
 10
718.390465
 20
664.167103
 42
-0.031661
  0
VERTEX
  8
0
 10
715.703940
 20
664.254426
 42
-0.055506
  0
VERTEX
  8
0
 10
711.513726
 20
665.133057
 42
-0.082522
  0
VERTEX
  8
0
 10
708.199813
 20
666.867849
 42
-0.073866
  0
VERTEX
  8
0
 10
705.378703
 20
669.740188
 42
-0.036165
  0
VERTEX
  8
0
 10
702.661995
 20
674.105960
 42
-0.056084
  0
VERTEX
  8
0
 10
700.769643
 20
678.951965
 42
-0.086779
  0
VERTEX
  8
0
 10
700.379670
 20
683.417281
 42
-0.064918
  0
VERTEX
  8
0
 10
701.520849
 20
688.626396
 42
-0.019700
  0
VERTEX
  8
0
 10
704.561559
 20
696.136339
 42
0.020473
  0
VERTEX
  8
0
 10
707.040794
 20
702.286839
 42
0.083380
  0
VERTEX
  8
0
 10
707.743799
 20
706.243128
 42
0.162350
  0
VERTEX
  8
0
 10
706.917100
 20
708.802682
 42
0.151168
  0
VERTEX
  8
0
 10
704.697231
 20
710.443194
 42
0.087479
  0
VERTEX
  8
0
 10
701.830378
 20
710.911302
 42
0.204645
  0
VERTEX
  8
0
 10
699.882447
 20
710.049866
 42
0.133276
  0
VERTEX
  8
0
 10
698.625898
 20
707.669569
 42
0.030943
  0
VERTEX
  8
0
 10
697.903596
 20
703.161035
 42
-0.052078
  0
VERTEX
  8
0
 10
696.706913
 20
697.289405
 42
-0.065672
  0
VERTEX
  8
0
 10
694.365607
 20
692.267666
 42
-0.066724
  0
VERTEX
  8
0
 10
690.837727
 20
688.084977
 42
-0.056187
  0
VERTEX
  8
0
 10
686.133598
 20
684.693796
 42
-0.021409
  0
VERTEX
  8
0
 10
682.992251
 20
683.099899
 42
-0.046884
  0
VERTEX
  8
0
 10
680.445583
 20
682.218960
 42
-0.043105
  0
VERTEX
  8
0
 10
677.649019
 20
681.787206
 42
-0.015642
  0
VERTEX
  8
0
 10
673.633598
 20
681.643639
 42
-0.048446
  0
VERTEX
  8
0
 10
665.894352
 20
682.360468
 42
-0.124061
  0
VERTEX
  8
0
 10
660.830758
 20
684.719834
 42
-0.145829
  0
VERTEX
  8
0
 10
657.974545
 20
688.910162
 42
-0.077321
  0
VERTEX
  8
0
 10
657.000000
 20
695.174466
 42
0.015010
  0
VERTEX
  8
0
 10
656.890284
 20
698.828447
 42
0.102577
  0
VERTEX
  8
0
 10
656.421829
 20
700.558224
 42
0.107849
  0
VERTEX
  8
0
 10
655.312081
 20
701.919989
 42
0.017379
  0
VERTEX
  8
0
 10
652.544500
 20
703.969383
 42
-0.026924
  0
VERTEX
  8
0
 10
648.848355
 20
706.817153
 42
-0.067983
  0
VERTEX
  8
0
 10
646.602301
 20
709.353711
 42
-0.084844
  0
VERTEX
  8
0
 10
645.406322
 20
712.034057
 42
-0.062684
  0
VERTEX
  8
0
 10
645.000000
 20
715.262344
 42
-0.089405
  0
VERTEX
  8
0
 10
645.955176
 20
720.561464
 42
-0.070975
  0
VERTEX
  8
0
 10
648.739966
 20
725.678599
 42
-0.064358
  0
VERTEX
  8
0
 10
653.152658
 20
730.241743
 42
-0.052447
  0
VERTEX
  8
0
 10
658.883530
 20
733.905525
 42
-0.044261
  0
VERTEX
  8
0
 10
661.350415
 20
734.878145
 42
-0.067631
  0
VERTEX
  8
0
 10
663.620674
 20
735.225995
 42
-0.034223
  0
VERTEX
  8
0
 10
666.831692
 20
735.060681
 42
-0.004179
  0
VERTEX
  8
0
 10
673.823597
 20
734.159265
 42
0.010127
  0
VERTEX
  8
0
 10
681.904083
 20
733.215085
 42
0.074621
  0
VERTEX
  8
0
 10
685.771857
 20
733.419885
 42
0.183997
  0
VERTEX
  8
0
 10
687.796332
 20
734.705522
 42
0.131010
  0
VERTEX
  8
0
 10
688.804291
 20
737.225142
 42
0.115383
  0
VERTEX
  8
0
 10
688.526550
 20
739.745791
 42
0.154247
  0
VERTEX
  8
0
 10
687.150377
 20
741.572780
 42
0.110815
  0
VERTEX
  8
0
 10
684.557394
 20
742.664219
 42
0.043694
  0
VERTEX
  8
0
 10
680.678571
 20
743.015621
 42
-0.039619
  0
VERTEX
  8
0
 10
672.601433
 20
743.681171
 42
-0.062600
  0
VERTEX
  8
0
 10
665.943095
 20
745.642365
 42
-0.074711
  0
VERTEX
  8
0
 10
660.854691
 20
748.836994
 42
-0.095598
  0
VERTEX
  8
0
 10
657.423844
 20
753.163872
 42
-0.092519
  0
VERTEX
  8
0
 10
655.735138
 20
758.715736
 42
-0.042511
  0
VERTEX
  8
0
 10
655.539377
 20
766.303477
 42
-0.039660
  0
VERTEX
  8
0
 10
656.507616
 20
773.251839
 42
-0.263697
  0
VERTEX
  8
0
 10
658.762239
 20
775.754080
 42
-0.226710
  0
VERTEX
  8
0
 10
659.507533
 20
775.661086
 42
-0.015227
  0
VERTEX
  8
0
 10
661.327597
 20
774.414659
 42
-0.019505
  0
VERTEX
  8
0
 10
663.472293
 20
772.715773
 42
-0.013212
  0
VERTEX
  8
0
 10
665.784565
 20
770.624080
 42
0.000000
  0
VERTEX
  8
0
 10
671.588588
 20
765.087980
 42
0.000000
  0
VERTEX
  8
0
 10
671.171632
 20
774.621328
 42
-0.008245
  0
VERTEX
  8
0
 10
671.055712
 20
778.878928
 42
-0.019582
  0
VERTEX
  8
0
 10
671.145750
 20
782.045442
 42
-0.021942
  0
VERTEX
  8
0
 10
671.400763
 20
784.323835
 42
-0.158830
  0
VERTEX
  8
0
 10
671.894050
 20
785.294050
 42
-0.126299
  0
VERTEX
  8
0
 10
673.560284
 20
786.279595
 42
-0.008874
  0
VERTEX
  8
0
 10
678.834892
 20
787.711691
 42
-0.012828
  0
VERTEX
  8
0
 10
684.142012
 20
788.908018
 42
-0.049508
  0
VERTEX
  8
0
 10
687.500000
 20
789.235184
 42
-0.066929
  0
VERTEX
  8
0
 10
688.580226
 20
789.087943
 42
-0.014873
  0
VERTEX
  8
0
 10
690.366223
 20
788.537676
 42
-0.015194
  0
VERTEX
  8
0
 10
692.407490
 20
787.771666
 42
-0.014137
  0
VERTEX
  8
0
 10
694.448845
 20
786.865779
 42
-0.060265
  0
VERTEX
  8
0
 10
698.989765
 20
783.978744
 42
-0.111835
  0
VERTEX
  8
0
 10
701.658217
 20
780.550064
 42
-0.080696
  0
VERTEX
  8
0
 10
703.087484
 20
775.533674
 42
-0.020691
  0
VERTEX
  8
0
 10
703.722798
 20
767.095255
 42
0.013964
  0
VERTEX
  8
0
 10
704.189857
 20
759.534606
 42
0.086854
  0
VERTEX
  8
0
 10
705.195242
 20
755.798860
 42
0.156945
  0
VERTEX
  8
0
 10
707.136334
 20
753.704856
 42
0.078795
  0
VERTEX
  8
0
 10
710.554165
 20
752.439167
 42
0.031601
  0
VERTEX
  8
0
 10
712.215615
 20
752.214828
 42
0.120531
  0
VERTEX
  8
0
 10
713.238913
 20
752.389296
 42
0.137950
  0
VERTEX
  8
0
 10
713.989170
 20
752.999664
 42
0.046573
  0
VERTEX
  8
0
 10
714.696670
 20
754.233608
 42
0.069682
  0
VERTEX
  8
0
 10
715.284747
 20
756.215947
 42
0.057780
  0
VERTEX
  8
0
 10
715.359234
 20
758.417677
 42
0.025040
  0
VERTEX
  8
0
 10
714.902955
 20
761.862575
 42
0.002868
  0
VERTEX
  8
0
 10
713.443379
 20
769.555932
 42
-0.026694
  0
VERTEX
  8
0
 10
712.673468
 20
775.025165
 42
-0.043305
  0
VERTEX
  8
0
 10
712.673836
 20
779.716202
 42
-0.048396
  0
VERTEX
  8
0
 10
713.457607
 20
783.942874
 42
-0.046504
  0
VERTEX
  8
0
 10
715.045280
 20
788.000000
 42
-0.044104
  0
VERTEX
  8
0
 10
717.360529
 20
791.741749
 42
-0.079140
  0
VERTEX
  8
0
 10
719.946111
 20
794.251891
 42
-0.078271
  0
VERTEX
  8
0
 10
723.204239
 20
795.851633
 42
-0.042291
  0
VERTEX
  8
0
 10
727.580147
 20
796.810287
 42
-0.027548
  0
VERTEX
  8
0
 10
731.471216
 20
797.106796
 42
-0.024111
  0
VERTEX
  8
0
 10
735.549849
 20
796.995674
 42
-0.019778
  0
VERTEX
  8
0
 10
739.102324
 20
796.585327
 42
-0.177955
  0
SEQEND
  0
POLYLINE
  8
0
 66
1
 70
1
  0
VERTEX
  8
0
 10
777.000000
 20
765.232824
 42
-0.158073
  0
VERTEX
  8
0
 10
776.842552
 20
764.747246
 42
-0.005865
  0
VERTEX
  8
0
 10
775.680212
 20
763.182291
 42
-0.010138
  0
VERTEX
  8
0
 10
774.228639
 20
761.353231
 42
-0.006898
  0
VERTEX
  8
0
 10
772.507106
 20
759.329596
 42
0.000000
  0
VERTEX
  8
0
 10
768.014213
 20
754.193544
 42
0.000000
  0
VERTEX
  8
0
 10
758.757106
 20
753.846772
 42
0.008645
  0
VERTEX
  8
0
 10
753.669026
 20
753.568015
 42
0.035038
  0
VERTEX
  8
0
 10
750.597710
 20
753.128720
 42
0.053987
  0
VERTEX
  8
0
 10
748.337810
 20
752.379851
 42
0.047962
  0
VERTEX
  8
0
 10
746.192425
 20
751.140909
 42
-0.009970
  0
VERTEX
  8
0
 10
743.777452
 20
749.490092
 42
-0.166420
  0
VERTEX
  8
0
 10
742.849981
 20
749.253406
 42
-0.306644
  0
VERTEX
  8
0
 10
742.271868
 20
749.716177
 42
-0.032241
  0
VERTEX
  8
0
 10
741.845069
 20
751.489242
 42
-0.227257
  0
VERTEX
  8
0
 10
742.241021
 20
752.891699
 42
-0.112065
  0
VERTEX
  8
0
 10
743.777979
 20
754.001779
 42
-0.039726
  0
VERTEX
  8
0
 10
747.117374
 20
755.119175
 42
-0.005053
  0
VERTEX
  8
0
 10
754.500000
 20
756.874141
 42
0.030005
  0
VERTEX
  8
0
 10
757.113183
 20
757.634832
 42
0.050401
  0
VERTEX
  8
0
 10
759.175391
 20
758.615719
 42
0.049656
  0
VERTEX
  8
0
 10
761.020295
 20
760.000619
 42
0.028176
  0
VERTEX
  8
0
 10
762.968697
 20
762.004731
 42
-0.020093
  0
VERTEX
  8
0
 10
765.155709
 20
764.328229
 42
-0.087003
  0
VERTEX
  8
0
 10
766.711113
 20
765.396680
 42
-0.087124
  0
VERTEX
  8
0
 10
768.536166
 20
765.871494
 42
-0.020181
  0
VERTEX
  8
0
 10
771.718697
 20
766.000000
 42
-0.013646
  0
VERTEX
  8
0
 10
773.743421
 20
765.944730
 42
-0.022422
  0
VERTEX
  8
0
 10
775.448617
 20
765.774642
 42
-0.018411
  0
VERTEX
  8
0
 10
776.757380
 20
765.535037
 42
-0.351742
  0
SEQEND
  0
POLYLINE
  8
0
 66
1
 70
1
  0
VERTEX
  8
0
 10
662.269870
 20
744.444307
 42
0.015803
  0
VERTEX
  8
0
 10
665.002701
 20
743.422903
 42
0.011899
  0
VERTEX
  8
0
 10
668.065212
 20
742.467917
 42
0.012062
  0
VERTEX
  8
0
 10
670.990168
 20
741.707468
 42
0.027002
  0
VERTEX
  8
0
 10
673.250000
 20
741.305016
 42
-0.017351
  0
VERTEX
  8
0
 10
675.540753
 20
740.942504
 42
-0.062332
  0
VERTEX
  8
0
 10
676.945001
 20
740.483144
 42
-0.114709
  0
VERTEX
  8
0
 10
677.717465
 20
739.872322
 42
-0.169934
  0
VERTEX
  8
0
 10
678.000000
 20
739.065020
 42
-0.235737
  0
VERTEX
  8
0
 10
677.574110
 20
738.211902
 42
-0.116003
  0
VERTEX
  8
0
 10
676.435212
 20
737.711770
 42
-0.041292
  0
VERTEX
  8
0
 10
674.129986
 20
737.479840
 42
-0.005541
  0
VERTEX
  8
0
 10
669.250000
 20
737.447370
 42
0.010747
  0
VERTEX
  8
0
 10
664.495070
 20
737.366224
 42
0.032375
  0
VERTEX
  8
0
 10
661.270343
 20
737.031971
 42
0.041837
  0
VERTEX
  8
0
 10
658.598610
 20
736.345106
 42
0.030304
  0
VERTEX
  8
0
 10
655.761979
 20
735.159651
 42
-0.009978
  0
VERTEX
  8
0
 10
652.960668
 20
733.852863
 42
-0.073325
  0
VERTEX
  8
0
 10
651.540653
 20
733.459648
 42
-0.146911
  0
VERTEX
  8
0
 10
650.516719
 20
733.633289
 42
-0.081600
  0
VERTEX
  8
0
 10
649.479008
 20
734.378135
 42
0.023960
  0
VERTEX
  8
0
 10
648.595722
 20
735.180593
 42
0.005614
  0
VERTEX
  8
0
 10
647.038963
 20
736.435240
 42
0.005773
  0
VERTEX
  8
0
 10
645.213336
 20
737.839220
 42
0.005643
  0
VERTEX
  8
0
 10
643.341973
 20
739.211542
 42
0.000000
  0
VERTEX
  8
0
 10
638.749887
 20
742.500000
 42
0.000000
  0
VERTEX
  8
0
 10
643.124944
 20
743.341731
 42
0.014418
  0
VERTEX
  8
0
 10
646.144497
 20
744.013488
 42
0.006164
  0
VERTEX
  8
0
 10
650.141474
 20
745.077049
 42
0.004974
  0
VERTEX
  8
0
 10
653.979411
 20
746.190397
 42
0.036212
  0
VERTEX
  8
0
 10
655.769870
 20
746.873914
 42
-0.200022
  0
VERTEX
  8
0
 10
655.982247
 20
746.882890
 42
-0.001278
  0
VERTEX
  8
0
 10
657.790567
 20
746.212228
 42
-0.004851
  0
VERTEX
  8
0
 10
659.862137
 20
745.414916
 42
-0.003043
  0
SEQEND
  0
POLYLINE
  8
0
 66
1
 70
1
  0
VERTEX
  8
0
 10
744.722513
 20
709.295673
 42
0.037517
  0
VERTEX
  8
0
 10
748.265928
 20
704.729208
 42
0.047151
  0
VERTEX
  8
0
 10
752.212801
 20
701.113380
 42
0.052294
  0
VERTEX
  8
0
 10
756.363437
 20
698.608816
 42
0.072579
  0
VERTEX
  8
0
 10
760.515818
 20
697.353701
 42
-0.051357
  0
VERTEX
  8
0
 10
763.496182
 20
696.588714
 42
-0.109479
  0
VERTEX
  8
0
 10
765.485813
 20
695.307904
 42
-0.122355
  0
VERTEX
  8
0
 10
766.614804
 20
693.412637
 42
-0.073569
  0
VERTEX
  8
0
 10
767.000000
 20
690.808870
 42
-0.043141
  0
VERTEX
  8
0
 10
766.857512
 20
689.160525
 42
-0.213226
  0
VERTEX
  8
0
 10
766.349483
 20
688.406048
 42
-0.127896
  0
VERTEX
  8
0
 10
765.271050
 20
688.068181
 42
-0.012300
  0
VERTEX
  8
0
 10
762.500000
 20
688.000000
 42
-0.051107
  0
VERTEX
  8
0
 10
759.283333
 20
688.329648
 42
-0.102444
  0
VERTEX
  8
0
 10
756.949428
 20
689.339666
 42
-0.086809
  0
VERTEX
  8
0
 10
754.970093
 20
691.320526
 42
-0.029334
  0
VERTEX
  8
0
 10
752.819423
 20
694.803464
 42
0.048877
  0
VERTEX
  8
0
 10
751.882267
 20
696.196484
 42
0.022363
  0
VERTEX
  8
0
 10
750.412092
 20
697.824167
 42
0.021895
  0
VERTEX
  8
0
 10
748.698075
 20
699.413578
 42
0.028147
  0
VERTEX
  8
0
 10
746.984213
 20
700.710077
 42
-0.010150
  0
VERTEX
  8
0
 10
741.381693
 20
704.639605
 42
-0.058496
  0
VERTEX
  8
0
 10
738.734019
 20
707.100310
 42
-0.117669
  0
VERTEX
  8
0
 10
737.632760
 20
709.263662
 42
-0.109802
  0
VERTEX
  8
0
 10
737.588311
 20
711.750000
 42
-0.037562
  0
VERTEX
  8
0
 10
737.940598
 20
712.994109
 42
-0.050713
  0
VERTEX
  8
0
 10
738.451461
 20
714.045313
 42
-0.061290
  0
VERTEX
  8
0
 10
739.033412
 20
714.770679
 42
-0.195494
  0
VERTEX
  8
0
 10
739.597513
 20
715.000000
 42
-0.193551
  0
VERTEX
  8
0
 10
740.317447
 20
714.710466
 42
-0.018526
  0
VERTEX
  8
0
 10
741.658831
 20
713.324354
 42
-0.021472
  0
VERTEX
  8
0
 10
743.177378
 20
711.480748
 42
-0.015292
  0
SEQEND
  0
POLYLINE
  8
0
 66
1
 70
1
  0
VERTEX
  8
0
 10
700.860402
 20
694.417320
 42
0.035652
  0
VERTEX
  8
0
 10
700.034173
 20
692.119667
 42
0.015667
  0
VERTEX
  8
0
 10
699.257215
 20
688.980034
 42
0.015308
  0
VERTEX
  8
0
 10
698.631362
 20
685.553321
 42
0.018639
  0
VERTEX
  8
0
 10
698.264361
 20
682.312430
 42
0.000000
  0
VERTEX
  8
0
 10
697.695457
 20
674.790220
 42
0.000000
  0
VERTEX
  8
0
 10
692.097729
 20
670.395739
 42
-0.007221
  0
VERTEX
  8
0
 10
689.888043
 20
668.712034
 42
-0.010401
  0
VERTEX
  8
0
 10
687.881416
 20
667.291952
 42
-0.006483
  0
VERTEX
  8
0
 10
686.171610
 20
666.166593
 42
-0.143073
  0
VERTEX
  8
0
 10
685.604963
 20
666.000629
 42
-0.384916
  0
VERTEX
  8
0
 10
685.272208
 20
666.300924
 42
-0.015137
  0
VERTEX
  8
0
 10
685.144711
 20
668.081414
 42
-0.019819
  0
VERTEX
  8
0
 10
685.141064
 20
670.385140
 42
-0.011399
  0
VERTEX
  8
0
 10
685.309878
 20
673.156221
 42
-0.012412
  0
VERTEX
  8
0
 10
685.796927
 20
677.629014
 42
-0.073086
  0
VERTEX
  8
0
 10
686.445448
 20
679.891118
 42
-0.083249
  0
VERTEX
  8
0
 10
687.685662
 20
681.738498
 42
-0.018635
  0
VERTEX
  8
0
 10
690.402987
 20
684.406221
 42
0.027653
  0
VERTEX
  8
0
 10
692.317059
 20
686.354343
 42
0.017034
  0
VERTEX
  8
0
 10
694.356695
 20
688.839640
 42
0.017066
  0
VERTEX
  8
0
 10
696.211226
 20
691.442680
 42
0.029116
  0
VERTEX
  8
0
 10
697.552877
 20
693.750000
 42
-0.022147
  0
VERTEX
  8
0
 10
699.922125
 20
697.958372
 42
-0.206530
  0
VERTEX
  8
0
 10
701.595543
 20
699.119057
 42
-0.567630
  0
VERTEX
  8
0
 10
702.313922
 20
698.328064
 42
-0.030320
  0
SEQEND
  0
POLYLINE
  8
0
 66
1
 70
1
  0
VERTEX
  8
0
 10
704.034160
 20
666.383616
 42
0.000000
  0
VERTEX
  8
0
 10
709.500000
 20
660.767232
 42
0.000000
  0
VERTEX
  8
0
 10
705.500000
 20
661.468230
 42
-0.023165
  0
VERTEX
  8
0
 10
703.858610
 20
661.834949
 42
-0.022204
  0
VERTEX
  8
0
 10
702.234375
 20
662.356192
 42
-0.022778
  0
VERTEX
  8
0
 10
700.845254
 20
662.944294
 42
-0.070655
  0
VERTEX
  8
0
 10
700.000000
 20
663.506703
 42
0.048674
  0
VERTEX
  8
0
 10
699.230768
 20
664.068635
 42
0.022309
  0
VERTEX
  8
0
 10
698.132812
 20
664.652901
 42
0.021845
  0
VERTEX
  8
0
 10
696.912811
 20
665.169763
 42
0.028126
  0
VERTEX
  8
0
 10
695.750000
 20
665.530497
 42
-0.025980
  0
VERTEX
  8
0
 10
694.696702
 20
665.852311
 42
-0.037351
  0
VERTEX
  8
0
 10
693.807812
 20
666.252614
 42
-0.041537
  0
VERTEX
  8
0
 10
693.173526
 20
666.668934
 42
-0.230701
  0
VERTEX
  8
0
 10
693.000000
 20
667.025002
 42
-0.171327
  0
VERTEX
  8
0
 10
693.151160
 20
667.453198
 42
-0.021776
  0
VERTEX
  8
0
 10
693.807812
 20
668.198477
 42
-0.023479
  0
VERTEX
  8
0
 10
694.696824
 20
669.040127
 42
-0.017527
  0
VERTEX
  8
0
 10
695.750000
 20
669.884913
 42
0.000135
  0
VERTEX
  8
0
 10
696.806814
 20
670.673829
 42
0.000221
  0
VERTEX
  8
0
 10
697.702222
 20
671.343251
 42
0.000019
  0
VERTEX
  8
0
 10
698.505247
 20
671.944207
 42
0.026321
  0
VERTEX
  8
0
 10
698.534160
 20
671.968320
 42
-0.405411
  0
VERTEX
  8
0
 10
698.561506
 20
671.967702
 42
-0.000035
  0
VERTEX
  8
0
 10
700.163876
 20
670.340881
 42
-0.000929
  0
VERTEX
  8
0
 10
701.935828
 20
668.534943
 42
-0.000557
  0
SEQEND
  0
POLYLINE
  8
0
 66
1
 70
1
  0
VERTEX
  8
0
 10
591.541119
 20
635.933469
 42
-0.054373
  0
VERTEX
  8
0
 10
591.754212
 20
635.486566
 42
-0.063097
  0
VERTEX
  8
0
 10
591.852492
 20
635.026079
 42
-0.073368
  0
VERTEX
  8
0
 10
591.827316
 20
634.622027
 42
-0.145181
  0
VERTEX
  8
0
 10
591.675496
 20
634.342163
 42
-0.242246
  0
VERTEX
  8
0
 10
590.764753
 20
634.050363
 42
-0.047090
  0
VERTEX
  8
0
 10
589.043276
 20
634.507174
 42
-0.047127
  0
VERTEX
  8
0
 10
587.449228
 20
635.272628
 42
-0.263061
  0
VERTEX
  8
0
 10
587.000000
 20
636.067388
 42
-0.325425
  0
VERTEX
  8
0
 10
587.509822
 20
636.767750
 42
-0.085662
  0
VERTEX
  8
0
 10
588.966581
 20
636.975157
 42
-0.073603
  0
VERTEX
  8
0
 10
590.592782
 20
636.685244
 42
-0.175226
  0
SEQEND
  0
POLYLINE
  8
0
 66
1
 70
1
  0
VERTEX
  8
0
 10
608.651932
 20
633.712690
 42
-0.089672
  0
VERTEX
  8
0
 10
609.143035
 20
632.964485
 42
-0.020711
  0
VERTEX
  8
0
 10
609.677067
 20
631.548124
 42
-0.020742
  0
VERTEX
  8
0
 10
610.163761
 20
629.840608
 42
-0.018960
  0
VERTEX
  8
0
 10
610.524146
 20
628.046880
 42
0.000000
  0
VERTEX
  8
0
 10
611.244429
 20
623.593761
 42
0.000000
  0
VERTEX
  8
0
 10
608.872215
 20
625.289110
 42
0.009361
  0
VERTEX
  8
0
 10
607.656281
 20
626.124160
 42
0.003259
  0
VERTEX
  8
0
 10
605.874963
 20
627.282442
 42
0.003236
  0
VERTEX
  8
0
 10
603.896790
 20
628.532468
 42
0.003767
  0
VERTEX
  8
0
 10
602.000000
 20
629.694217
 42
-0.012061
  0
VERTEX
  8
0
 10
599.058249
 20
631.563779
 42
-0.042579
  0
VERTEX
  8
0
 10
597.311821
 20
632.962696
 42
-0.070962
  0
VERTEX
  8
0
 10
596.353483
 20
634.175705
 42
-0.128122
  0
VERTEX
  8
0
 10
596.015313
 20
635.387681
 42
-0.443387
  0
VERTEX
  8
0
 10
596.785068
 20
636.109634
 42
-0.012617
  0
VERTEX
  8
0
 10
601.807810
 20
635.572426
 42
-0.016444
  0
VERTEX
  8
0
 10
606.779130
 20
634.746335
 42
-0.154598
  0
SEQEND
  0
POLYLINE
  8
0
 66
1
 70
1
  0
VERTEX
  8
0
 10
172.805804
 20
953.592042
 42
0.015465
  0
VERTEX
  8
0
 10
170.895464
 20
953.017654
 42
0.015775
  0
VERTEX
  8
0
 10
169.037059
 20
952.329687
 42
0.015734
  0
VERTEX
  8
0
 10
167.463845
 20
951.631730
 42
0.061000
  0
VERTEX
  8
0
 10
166.567885
 20
951.056340
 42
0.066255
  0
VERTEX
  8
0
 10
164.582394
 20
948.906842
 42
0.027726
  0
VERTEX
  8
0
 10
162.490843
 20
945.555908
 42
0.027251
  0
VERTEX
  8
0
 10
160.659300
 20
941.745611
 42
0.036248
  0
VERTEX
  8
0
 10
159.446709
 20
938.100179
 42
-0.016997
  0
VERTEX
  8
0
 10
158.939539
 20
936.353856
 42
-0.023514
  0
VERTEX
  8
0
 10
158.359372
 20
934.829436
 42
-0.021353
  0
VERTEX
  8
0
 10
157.783574
 20
933.647643
 42
-0.190498
  0
VERTEX
  8
0
 10
157.349168
 20
933.283056
 42
-0.246376
  0
VERTEX
  8
0
 10
156.742948
 20
933.381745
 42
-0.009524
  0
VERTEX
  8
0
 10
154.895818
 20
934.825863
 42
-0.015078
  0
VERTEX
  8
0
 10
152.728484
 20
936.699156
 42
-0.009848
  0
VERTEX
  8
0
 10
150.338789
 20
938.982315
 42
0.008245
  0
VERTEX
  8
0
 10
147.940962
 20
941.287992
 42
0.012027
  0
VERTEX
  8
0
 10
145.747535
 20
943.232305
 42
0.007590
  0
VERTEX
  8
0
 10
143.867530
 20
944.771447
 42
0.169304
  0
VERTEX
  8
0
 10
143.211899
 20
945.000000
 42
0.444190
  0
VERTEX
  8
0
 10
142.915814
 20
944.672310
 42
0.030528
  0
VERTEX
  8
0
 10
143.142413
 20
943.288307
 42
0.027044
  0
VERTEX
  8
0
 10
143.687755
 20
941.373073
 42
0.013622
  0
VERTEX
  8
0
 10
144.570056
 20
939.019870
 42
-0.015604
  0
VERTEX
  8
0
 10
145.500212
 20
936.508796
 42
-0.014961
  0
VERTEX
  8
0
 10
146.286204
 20
933.909317
 42
-0.015076
  0
VERTEX
  8
0
 10
146.841111
 20
931.576771
 42
-0.050895
  0
VERTEX
  8
0
 10
147.000000
 20
930.019870
 42
-0.032683
  0
VERTEX
  8
0
 10
146.883531
 20
928.239976
 42
-0.195277
  0
VERTEX
  8
0
 10
146.433607
 20
927.447539
 42
-0.150861
  0
VERTEX
  8
0
 10
145.485256
 20
927.080531
 42
-0.017447
  0
VERTEX
  8
0
 10
143.178139
 20
927.000000
 42
0.051007
  0
VERTEX
  8
0
 10
139.144022
 20
926.587393
 42
0.029579
  0
VERTEX
  8
0
 10
134.434740
 20
925.319525
 42
0.029501
  0
VERTEX
  8
0
 10
130.077188
 20
923.573410
 42
0.074210
  0
VERTEX
  8
0
 10
127.238764
 20
921.680101
 42
0.054673
  0
VERTEX
  8
0
 10
126.296392
 20
920.616757
 42
0.027002
  0
VERTEX
  8
0
 10
125.333452
 20
919.087410
 42
0.026422
  0
VERTEX
  8
0
 10
124.495452
 20
917.375007
 42
0.034825
  0
VERTEX
  8
0
 10
123.927948
 20
915.732419
 42
0.073023
  0
VERTEX
  8
0
 10
123.554375
 20
912.560791
 42
0.102105
  0
VERTEX
  8
0
 10
124.208958
 20
909.790696
 42
0.102731
  0
VERTEX
  8
0
 10
125.902199
 20
907.517901
 42
0.074696
  0
VERTEX
  8
0
 10
128.552890
 20
905.793948
 42
-0.030691
  0
VERTEX
  8
0
 10
130.445421
 20
904.787196
 42
-0.291683
  0
VERTEX
  8
0
 10
130.828449
 20
904.000160
 42
-0.215581
  0
VERTEX
  8
0
 10
130.312073
 20
903.137450
 42
-0.018306
  0
VERTEX
  8
0
 10
128.082159
 20
901.707604
 42
0.048389
  0
VERTEX
  8
0
 10
124.589337
 20
899.159506
 42
0.066378
  0
VERTEX
  8
0
 10
122.053138
 20
896.216358
 42
0.072215
  0
VERTEX
  8
0
 10
120.524178
 20
892.921960
 42
0.072714
  0
VERTEX
  8
0
 10
120.000000
 20
889.336652
 42
0.037074
  0
VERTEX
  8
0
 10
120.203094
 20
886.601366
 42
0.090180
  0
VERTEX
  8
0
 10
120.852548
 20
884.693475
 42
0.061688
  0
VERTEX
  8
0
 10
122.285146
 20
882.733552
 42
0.010742
  0
VERTEX
  8
0
 10
125.500000
 20
879.457037
 42
-0.005254
  0
VERTEX
  8
0
 10
127.607912
 20
877.355340
 42
-0.008065
  0
VERTEX
  8
0
 10
129.384375
 20
875.487155
 42
-0.003539
  0
VERTEX
  8
0
 10
130.852082
 20
873.870126
 42
-0.184541
  0
VERTEX
  8
0
 10
131.000000
 20
873.483002
 42
-0.169291
  0
VERTEX
  8
0
 10
130.857433
 20
873.073999
 42
-0.001778
  0
VERTEX
  8
0
 10
128.949303
 20
870.686985
 42
-0.005419
  0
VERTEX
  8
0
 10
126.694753
 20
867.948384
 42
-0.003466
  0
VERTEX
  8
0
 10
124.018905
 20
864.813262
 42
0.011127
  0
VERTEX
  8
0
 10
119.490600
 20
859.340074
 42
0.084527
  0
VERTEX
  8
0
 10
117.890554
 20
856.413268
 42
0.619102
  0
VERTEX
  8
0
 10
118.597549
 20
855.694371
 42
0.068400
  0
VERTEX
  8
0
 10
121.336040
 20
857.022402
 42
-0.022214
  0
VERTEX
  8
0
 10
124.761186
 20
859.092803
 42
-0.027751
  0
VERTEX
  8
0
 10
128.116379
 20
860.687933
 42
-0.028950
  0
VERTEX
  8
0
 10
131.501679
 20
861.849077
 42
-0.028501
  0
VERTEX
  8
0
 10
135.016071
 20
862.618561
 42
0.000000
  0
VERTEX
  8
0
 10
139.227843
 20
863.292050
 42
0.000000
  0
VERTEX
  8
0
 10
138.517933
 20
858.130385
 42
0.063366
  0
VERTEX
  8
0
 10
138.448546
 20
851.270607
 42
0.064631
  0
VERTEX
  8
0
 10
140.104945
 20
844.660526
 42
0.068058
  0
VERTEX
  8
0
 10
143.277555
 20
838.995581
 42
0.086161
  0
VERTEX
  8
0
 10
147.651392
 20
834.900688
 42
0.027688
  0
VERTEX
  8
0
 10
149.369133
 20
833.905248
 42
0.124133
  0
VERTEX
  8
0
 10
150.493963
 20
833.650347
 42
0.098219
  0
VERTEX
  8
0
 10
151.737738
 20
833.928432
 42
0.013993
  0
VERTEX
  8
0
 10
154.111227
 20
835.056744
 42
0.000000
  0
VERTEX
  8
0
 10
157.878870
 20
836.978852
 42
0.000000
  0
VERTEX
  8
0
 10
160.094497
 20
833.739426
 42
0.023346
  0
VERTEX
  8
0
 10
162.286057
 20
830.835900
 42
0.069287
  0
VERTEX
  8
0
 10
164.125637
 20
829.158904
 42
0.090041
  0
VERTEX
  8
0
 10
166.059175
 20
828.292547
 42
0.060486
  0
VERTEX
  8
0
 10
168.468623
 20
828.000000
 42
0.072100
  0
VERTEX
  8
0
 10
171.048880
 20
828.374016
 42
0.059924
  0
VERTEX
  8
0
 10
173.597222
 20
829.474362
 42
0.042265
  0
VERTEX
  8
0
 10
176.509485
 20
831.517578
 42
0.015004
  0
VERTEX
  8
0
 10
180.316725
 20
834.899302
 42
-0.007566
  0
VERTEX
  8
0
 10
182.755224
 20
837.131017
 42
-0.103122
  0
VERTEX
  8
0
 10
183.794047
 20
837.726497
 42
-0.252828
  0
VERTEX
  8
0
 10
184.593918
 20
837.580702
 42
-0.064867
  0
VERTEX
  8
0
 10
185.536583
 20
836.600091
 42
-0.043281
  0
VERTEX
  8
0
 10
186.242154
 20
835.448267
 42
-0.007736
  0
VERTEX
  8
0
 10
187.334765
 20
833.172628
 42
-0.008306
  0
VERTEX
  8
0
 10
188.532710
 20
830.457678
 42
-0.007414
  0
VERTEX
  8
0
 10
189.687694
 20
827.600091
 42
0.000000
  0
VERTEX
  8
0
 10
192.435671
 20
820.500000
 42
0.000000
  0
VERTEX
  8
0
 10
193.251826
 20
826.863469
 42
-0.013439
  0
VERTEX
  8
0
 10
193.670780
 20
829.554662
 42
-0.011323
  0
VERTEX
  8
0
 10
194.254919
 20
832.378866
 42
-0.011478
  0
VERTEX
  8
0
 10
194.905800
 20
834.932657
 42
-0.030827
  0
VERTEX
  8
0
 10
195.520520
 20
836.703354
 42
0.000000
  0
VERTEX
  8
0
 10
196.973059
 20
840.179769
 42
0.000000
  0
VERTEX
  8
0
 10
200.511690
 20
837.992775
 42
0.072415
  0
VERTEX
  8
0
 10
204.637772
 20
836.204372
 42
0.042243
  0
VERTEX
  8
0
 10
209.953120
 20
835.237232
 42
0.042228
  0
VERTEX
  8
0
 10
215.049693
 20
835.180445
 42
0.127376
  0
VERTEX
  8
0
 10
218.314580
 20
836.286551
 42
0.049456
  0
VERTEX
  8
0
 10
219.312370
 20
837.091563
 42
0.028852
  0
VERTEX
  8
0
 10
220.344587
 20
838.232513
 42
0.028620
  0
VERTEX
  8
0
 10
221.255252
 20
839.506790
 42
0.042668
  0
VERTEX
  8
0
 10
221.885071
 20
840.722537
 42
-0.042663
  0
VERTEX
  8
0
 10
222.660907
 20
842.220184
 42
-0.114586
  0
VERTEX
  8
0
 10
223.509284
 20
843.058399
 42
-0.105338
  0
VERTEX
  8
0
 10
224.685887
 20
843.476322
 42
-0.032860
  0
VERTEX
  8
0
 10
226.565750
 20
843.600000
 42
0.100528
  0
VERTEX
  8
0
 10
229.644588
 20
844.225339
 42
0.085367
  0
VERTEX
  8
0
 10
232.440401
 20
846.021658
 42
0.079815
  0
VERTEX
  8
0
 10
234.623863
 20
848.777134
 42
0.072370
  0
VERTEX
  8
0
 10
235.925732
 20
852.170705
 42
0.058079
  0
VERTEX
  8
0
 10
236.259005
 20
855.309064
 42
0.017692
  0
VERTEX
  8
0
 10
236.040772
 20
860.090301
 42
0.018320
  0
VERTEX
  8
0
 10
235.460376
 20
865.001673
 42
0.038285
  0
VERTEX
  8
0
 10
234.580219
 20
868.747253
 42
-0.150555
  0
VERTEX
  8
0
 10
234.571351
 20
869.794585
 42
-0.273889
  0
VERTEX
  8
0
 10
235.179669
 20
870.356462
 42
-0.062282
  0
VERTEX
  8
0
 10
236.868862
 20
870.503222
 42
-0.004164
  0
VERTEX
  8
0
 10
241.729870
 20
870.279128
 42
0.000000
  0
VERTEX
  8
0
 10
249.500000
 20
869.856046
 42
0.000000
  0
VERTEX
  8
0
 10
243.000000
 20
873.537851
 42
-0.006035
  0
VERTEX
  8
0
 10
236.344830
 20
877.414393
 42
-0.168087
  0
VERTEX
  8
0
 10
235.070478
 20
878.932825
 42
-0.273961
  0
VERTEX
  8
0
 10
235.352539
 20
880.579571
 42
-0.016787
  0
VERTEX
  8
0
 10
238.841305
 20
884.415736
 42
0.043335
  0
VERTEX
  8
0
 10
244.831665
 20
891.748761
 42
0.127748
  0
VERTEX
  8
0
 10
247.011287
 20
897.828569
 42
0.146198
  0
VERTEX
  8
0
 10
245.821765
 20
903.689769
 42
0.063538
  0
VERTEX
  8
0
 10
241.174173
 20
910.234735
 42
-0.026211
  0
VERTEX
  8
0
 10
239.803260
 20
911.889123
 42
-0.102241
  0
VERTEX
  8
0
 10
239.245384
 20
913.087203
 42
-0.104671
  0
VERTEX
  8
0
 10
239.214780
 20
914.393204
 42
-0.028165
  0
VERTEX
  8
0
 10
239.713355
 20
916.417686
 42
0.023617
  0
VERTEX
  8
0
 10
240.219353
 20
918.394731
 42
0.100423
  0
VERTEX
  8
0
 10
240.223187
 20
919.608659
 42
0.119257
  0
VERTEX
  8
0
 10
239.754968
 20
920.617819
 42
0.039777
  0
VERTEX
  8
0
 10
238.635822
 20
921.815978
 42
0.044613
  0
VERTEX
  8
0
 10
235.916523
 20
923.886641
 42
0.038526
  0
VERTEX
  8
0
 10
232.739573
 20
925.559295
 42
0.033299
  0
VERTEX
  8
0
 10
228.917631
 20
926.915693
 42
0.020053
  0
VERTEX
  8
0
 10
224.237226
 20
928.033111
 42
-0.032354
  0
VERTEX
  8
0
 10
219.774334
 20
929.215282
 42
-0.223575
  0
VERTEX
  8
0
 10
218.181310
 20
930.740153
 42
-0.160768
  0
VERTEX
  8
0
 10
218.058528
 20
933.268154
 42
-0.015273
  0
VERTEX
  8
0
 10
219.917263
 20
939.259520
 42
0.010030
  0
VERTEX
  8
0
 10
220.616028
 20
941.431173
 42
0.015368
  0
VERTEX
  8
0
 10
221.125208
 20
943.341305
 42
0.009817
  0
VERTEX
  8
0
 10
221.462221
 20
944.921372
 42
0.248935
  0
VERTEX
  8
0
 10
221.337091
 20
945.329576
 42
0.378300
  0
VERTEX
  8
0
 10
220.970184
 20
945.352382
 42
0.009913
  0
VERTEX
  8
0
 10
219.594580
 20
944.237547
 42
0.016055
  0
VERTEX
  8
0
 10
217.955321
 20
942.761657
 42
0.009671
  0
VERTEX
  8
0
 10
216.103666
 20
940.913506
 42
-0.021880
  0
VERTEX
  8
0
 10
212.614957
 20
937.597393
 42
-0.104602
  0
VERTEX
  8
0
 10
210.227799
 20
936.268873
 42
-0.248977
  0
VERTEX
  8
0
 10
208.591463
 20
936.581258
 42
-0.153391
  0
VERTEX
  8
0
 10
207.474824
 20
938.250000
 42
0.031267
  0
VERTEX
  8
0
 10
206.121826
 20
941.981766
 42
0.025926
  0
VERTEX
  8
0
 10
204.237354
 20
945.764622
 42
0.026474
  0
VERTEX
  8
0
 10
202.166467
 20
949.017275
 42
0.071218
  0
VERTEX
  8
0
 10
200.277819
 20
950.996107
 42
0.088210
  0
VERTEX
  8
0
 10
197.858253
 20
952.288394
 42
0.057290
  0
VERTEX
  8
0
 10
194.743109
 20
952.920305
 42
0.057230
  0
VERTEX
  8
0
 10
191.561396
 20
952.829113
 42
0.087323
  0
VERTEX
  8
0
 10
188.943290
 20
951.969650
 42
-0.065838
  0
VERTEX
  8
0
 10
187.890729
 20
951.573569
 42
-0.077141
  0
VERTEX
  8
0
 10
186.827940
 20
951.494299
 42
-0.065214
  0
VERTEX
  8
0
 10
185.654835
 20
951.744056
 42
-0.032665
  0
VERTEX
  8
0
 10
184.259031
 20
952.342964
 42
0.026435
  0
VERTEX
  8
0
 10
181.108510
 20
953.741473
 42
0.064158
  0
VERTEX
  8
0
 10
178.639799
 20
954.337162
 42
0.064930
  0
VERTEX
  8
0
 10
176.118608
 20
954.284085
 42
0.027612
  0
SEQEND
  0
POLYLINE
  8
0
 66
1
 70
1
  0
VERTEX
  8
0
 10
153.581559
 20
932.949593
 42
-0.034883
  0
VERTEX
  8
0
 10
154.996622
 20
931.932276
 42
-0.021857
  0
VERTEX
  8
0
 10
156.507562
 20
930.561613
 42
-0.021911
  0
VERTEX
  8
0
 10
157.883806
 20
929.073965
 42
-0.036905
  0
VERTEX
  8
0
 10
158.883624
 20
927.699593
 42
0.023877
  0
VERTEX
  8
0
 10
159.896230
 20
926.228633
 42
0.011297
  0
VERTEX
  8
0
 10
161.332637
 20
924.427569
 42
0.011168
  0
VERTEX
  8
0
 10
162.923528
 20
922.606953
 42
0.015498
  0
VERTEX
  8
0
 10
164.434031
 20
921.053833
 42
-0.021076
  0
VERTEX
  8
0
 10
166.979078
 20
918.377905
 42
-0.133591
  0
VERTEX
  8
0
 10
167.792946
 20
916.704106
 42
-0.201158
  0
VERTEX
  8
0
 10
167.474833
 20
915.211964
 42
-0.057929
  0
VERTEX
  8
0
 10
165.881038
 20
913.404988
 42
-0.017105
  0
VERTEX
  8
0
 10
164.490577
 20
912.238406
 42
-0.208926
  0
VERTEX
  8
0
 10
163.833232
 20
912.069203
 42
-0.199733
  0
VERTEX
  8
0
 10
163.246061
 20
912.432658
 42
-0.015498
  0
VERTEX
  8
0
 10
162.193783
 20
914.000000
 42
0.033840
  0
VERTEX
  8
0
 10
161.262116
 20
915.283408
 42
0.008548
  0
VERTEX
  8
0
 10
159.574551
 20
917.236206
 42
0.008682
  0
VERTEX
  8
0
 10
157.564629
 20
919.406181
 42
0.008668
  0
VERTEX
  8
0
 10
155.479533
 20
921.506234
 42
-0.016155
  0
VERTEX
  8
0
 10
152.866171
 20
924.218373
 42
-0.043173
  0
VERTEX
  8
0
 10
151.246534
 20
926.356648
 42
-0.055392
  0
VERTEX
  8
0
 10
150.254872
 20
928.402810
 42
-0.045545
  0
VERTEX
  8
0
 10
149.654970
 20
930.756234
 42
-0.013914
  0
VERTEX
  8
0
 10
149.441000
 20
932.383546
 42
-0.023681
  0
VERTEX
  8
0
 10
149.364817
 20
933.753394
 42
-0.020881
  0
VERTEX
  8
0
 10
149.399797
 20
934.795647
 42
-0.392325
  0
VERTEX
  8
0
 10
149.620148
 20
935.000000
 42
-0.111852
  0
VERTEX
  8
0
 10
150.021172
 20
934.909153
 42
-0.008017
  0
VERTEX
  8
0
 10
151.049374
 20
934.397693
 42
-0.010947
  0
VERTEX
  8
0
 10
152.263867
 20
933.734973
 42
-0.008041
  0
SEQEND
  0
POLYLINE
  8
0
 66
1
 70
1
  0
VERTEX
  8
0
 10
216.000000
 20
931.903450
 42
-0.110731
  0
VERTEX
  8
0
 10
215.755730
 20
930.813988
 42
-0.024511
  0
VERTEX
  8
0
 10
214.849734
 20
929.115990
 42
-0.024329
  0
VERTEX
  8
0
 10
213.583142
 20
927.215270
 42
-0.021338
  0
VERTEX
  8
0
 10
212.084201
 20
925.358317
 42
0.026953
  0
VERTEX
  8
0
 10
210.453123
 20
923.290603
 42
0.017572
  0
VERTEX
  8
0
 10
208.789581
 20
920.745164
 42
0.017683
  0
VERTEX
  8
0
 10
207.338191
 20
918.140381
 42
0.031960
  0
VERTEX
  8
0
 10
206.367254
 20
915.900910
 42
-0.011572
  0
VERTEX
  8
0
 10
205.232496
 20
912.960780
 42
-0.097266
  0
VERTEX
  8
0
 10
204.450529
 20
911.781205
 42
-0.190272
  0
VERTEX
  8
0
 10
203.506788
 20
911.364930
 42
-0.070125
  0
VERTEX
  8
0
 10
202.033053
 20
911.513765
 42
-0.028132
  0
VERTEX
  8
0
 10
200.889091
 20
911.863776
 42
-0.015625
  0
VERTEX
  8
0
 10
199.536242
 20
912.411063
 42
-0.015544
  0
VERTEX
  8
0
 10
198.197137
 20
913.052565
 42
-0.024177
  0
VERTEX
  8
0
 10
197.090324
 20
913.695399
 42
0.000000
  0
VERTEX
  8
0
 10
194.680647
 20
915.255354
 42
0.000000
  0
VERTEX
  8
0
 10
198.731053
 20
918.619845
 42
0.025831
  0
VERTEX
  8
0
 10
200.507671
 20
920.257785
 42
0.014346
  0
VERTEX
  8
0
 10
202.507545
 20
922.423315
 42
0.014277
  0
VERTEX
  8
0
 10
204.411468
 20
924.737660
 42
0.022338
  0
VERTEX
  8
0
 10
205.899395
 20
926.843221
 42
-0.047383
  0
VERTEX
  8
0
 10
209.112195
 20
930.938623
 42
-0.086831
  0
VERTEX
  8
0
 10
212.510757
 20
933.456672
 42
-0.212488
  0
VERTEX
  8
0
 10
214.866464
 20
933.564370
 42
-0.308716
  0
SEQEND
  0
POLYLINE
  8
0
 66
1
 70
1
  0
VERTEX
  8
0
 10
171.685549
 20
911.825686
 42
-0.042123
  0
VERTEX
  8
0
 10
172.571535
 20
910.840457
 42
-0.037200
  0
VERTEX
  8
0
 10
173.321447
 20
909.680344
 42
-0.039070
  0
VERTEX
  8
0
 10
173.838584
 20
908.526622
 42
-0.085488
  0
VERTEX
  8
0
 10
174.004484
 20
907.575686
 42
0.084252
  0
VERTEX
  8
0
 10
174.184189
 20
906.530477
 42
0.166210
  0
VERTEX
  8
0
 10
174.699769
 20
905.876730
 42
0.106746
  0
VERTEX
  8
0
 10
175.692915
 20
905.501869
 42
0.024293
  0
VERTEX
  8
0
 10
177.492989
 20
905.321890
 42
0.000000
  0
VERTEX
  8
0
 10
180.977009
 20
905.143779
 42
0.000000
  0
VERTEX
  8
0
 10
179.398537
 20
908.196208
 42
-0.016804
  0
VERTEX
  8
0
 10
178.548443
 20
909.984973
 42
-0.099217
  0
VERTEX
  8
0
 10
178.330982
 20
910.994078
 42
-0.147910
  0
VERTEX
  8
0
 10
178.565022
 20
911.810362
 42
-0.053171
  0
VERTEX
  8
0
 10
179.332491
 20
912.761062
 42
-0.237944
  0
VERTEX
  8
0
 10
181.789537
 20
913.570390
 42
-0.222560
  0
VERTEX
  8
0
 10
184.002153
 20
912.098567
 42
-0.158835
  0
VERTEX
  8
0
 10
184.749328
 20
908.918838
 42
-0.164284
  0
VERTEX
  8
0
 10
183.463534
 20
905.959705
 42
0.027488
  0
VERTEX
  8
0
 10
182.853635
 20
905.206424
 42
0.066134
  0
VERTEX
  8
0
 10
182.514303
 20
904.575663
 42
0.156214
  0
VERTEX
  8
0
 10
182.493689
 20
904.176251
 42
0.340413
  0
VERTEX
  8
0
 10
182.722568
 20
904.000000
 42
0.106366
  0
VERTEX
  8
0
 10
183.205856
 20
904.103987
 42
0.039659
  0
VERTEX
  8
0
 10
183.817487
 20
904.440625
 42
0.037078
  0
VERTEX
  8
0
 10
184.447400
 20
904.926025
 42
0.036868
  0
VERTEX
  8
0
 10
185.000000
 20
905.500000
 42
-0.059795
  0
VERTEX
  8
0
 10
186.237804
 20
906.673236
 42
-0.224710
  0
VERTEX
  8
0
 10
187.259454
 20
906.877251
 42
-0.197005
  0
VERTEX
  8
0
 10
188.159615
 20
906.215391
 42
-0.046143
  0
VERTEX
  8
0
 10
189.000000
 20
904.500000
 42
0.075281
  0
VERTEX
  8
0
 10
189.915044
 20
902.877854
 42
0.176919
  0
VERTEX
  8
0
 10
191.078585
 20
902.153704
 42
0.113331
  0
VERTEX
  8
0
 10
192.810195
 20
902.186971
 42
0.022634
  0
VERTEX
  8
0
 10
195.791829
 20
903.077276
 42
-0.028958
  0
VERTEX
  8
0
 10
197.144172
 20
903.462533
 42
-0.022429
  0
VERTEX
  8
0
 10
198.652589
 20
903.728892
 42
-0.022910
  0
VERTEX
  8
0
 10
200.086990
 20
903.849839
 42
-0.049529
  0
VERTEX
  8
0
 10
201.191052
 20
903.782774
 42
-0.037810
  0
VERTEX
  8
0
 10
202.404218
 20
903.492018
 42
-0.472115
  0
VERTEX
  8
0
 10
202.556668
 20
903.107878
 42
-0.124212
  0
VERTEX
  8
0
 10
202.026532
 20
902.540578
 42
-0.005337
  0
VERTEX
  8
0
 10
199.696369
 20
901.075079
 42
0.021698
  0
VERTEX
  8
0
 10
197.639184
 20
899.685336
 42
0.090965
  0
VERTEX
  8
0
 10
196.624002
 20
898.599637
 42
0.118253
  0
VERTEX
  8
0
 10
196.198621
 20
897.377712
 42
0.049193
  0
VERTEX
  8
0
 10
196.196369
 20
895.619581
 42
0.052110
  0
VERTEX
  8
0
 10
196.527326
 20
893.996515
 42
0.091206
  0
VERTEX
  8
0
 10
197.167426
 20
892.788278
 42
0.079686
  0
VERTEX
  8
0
 10
198.262283
 20
891.783211
 42
0.032154
  0
VERTEX
  8
0
 10
200.028656
 20
890.773389
 42
-0.024798
  0
VERTEX
  8
0
 10
202.068909
 20
889.646458
 42
-0.126263
  0
VERTEX
  8
0
 10
202.960165
 20
888.718768
 42
-0.127509
  0
VERTEX
  8
0
 10
203.290072
 20
887.481235
 42
-0.025494
  0
VERTEX
  8
0
 10
203.188489
 20
885.179298
 42
-0.015490
  0
VERTEX
  8
0
 10
202.896923
 20
882.878579
 42
-0.143841
  0
VERTEX
  8
0
 10
202.472159
 20
881.982740
 42
-0.219353
  0
VERTEX
  8
0
 10
201.716065
 20
881.653710
 42
-0.041892
  0
VERTEX
  8
0
 10
200.187003
 20
881.815082
 42
0.000000
  0
VERTEX
  8
0
 10
197.554341
 20
882.318347
 42
0.000000
  0
VERTEX
  8
0
 10
200.277171
 20
879.082448
 42
-0.045811
  0
VERTEX
  8
0
 10
201.958308
 20
876.666570
 42
-0.072138
  0
VERTEX
  8
0
 10
202.876079
 20
874.316847
 42
-0.130306
  0
VERTEX
  8
0
 10
202.825394
 20
872.672399
 42
-0.331621
  0
VERTEX
  8
0
 10
201.923077
 20
872.000000
 42
-0.133561
  0
VERTEX
  8
0
 10
201.341902
 20
872.158064
 42
-0.020924
  0
VERTEX
  8
0
 10
200.334742
 20
872.807812
 42
-0.022002
  0
VERTEX
  8
0
 10
199.186080
 20
873.697057
 42
-0.017608
  0
VERTEX
  8
0
 10
198.028255
 20
874.750000
 42
0.031123
  0
VERTEX
  8
0
 10
194.746816
 20
877.576075
 42
0.052531
  0
VERTEX
  8
0
 10
191.642665
 20
879.452806
 42
0.068235
  0
VERTEX
  8
0
 10
188.951803
 20
880.292744
 42
0.165922
  0
VERTEX
  8
0
 10
186.926342
 20
879.960580
 42
0.069892
  0
VERTEX
  8
0
 10
185.769909
 20
879.115717
 42
0.102321
  0
VERTEX
  8
0
 10
185.064235
 20
878.076126
 42
0.255004
  0
VERTEX
  8
0
 10
185.139009
 20
877.379589
 42
0.287850
  0
VERTEX
  8
0
 10
185.750000
 20
877.118421
 42
-0.112641
  0
VERTEX
  8
0
 10
188.614515
 20
876.924099
 42
-0.152655
  0
VERTEX
  8
0
 10
190.749057
 20
875.479267
 42
-0.156754
  0
VERTEX
  8
0
 10
191.645859
 20
873.109702
 42
-0.120162
  0
VERTEX
  8
0
 10
191.124320
 20
870.373507
 42
-0.057974
  0
VERTEX
  8
0
 10
190.106775
 20
868.688792
 42
-0.215607
  0
VERTEX
  8
0
 10
189.037553
 20
868.122707
 42
-0.176195
  0
VERTEX
  8
0
 10
187.749219
 20
868.502405
 42
-0.037513
  0
VERTEX
  8
0
 10
185.948848
 20
870.051152
 42
-0.044038
  0
VERTEX
  8
0
 10
185.087223
 20
871.079567
 42
-0.070098
  0
VERTEX
  8
0
 10
184.568941
 20
872.101414
 42
-0.079993
  0
VERTEX
  8
0
 10
184.393828
 20
873.122898
 42
-0.079534
  0
VERTEX
  8
0
 10
184.547568
 20
874.149873
 42
0.026697
  0
VERTEX
  8
0
 10
184.834272
 20
875.254472
 42
0.257946
  0
VERTEX
  8
0
 10
184.694168
 20
875.700561
 42
0.247256
  0
VERTEX
  8
0
 10
184.235458
 20
875.830880
 42
0.024842
  0
VERTEX
  8
0
 10
183.098720
 20
875.531333
 42
-0.034164
  0
VERTEX
  8
0
 10
182.294116
 20
875.335260
 42
-0.061433
  0
VERTEX
  8
0
 10
181.616499
 20
875.302698
 42
-0.096083
  0
VERTEX
  8
0
 10
181.162970
 20
875.426398
 42
-0.285646
  0
VERTEX
  8
0
 10
181.000000
 20
875.688388
 42
0.338001
  0
VERTEX
  8
0
 10
180.741541
 20
876.027044
 42
0.017628
  0
VERTEX
  8
0
 10
179.323679
 20
876.361664
 42
0.021934
  0
VERTEX
  8
0
 10
177.481011
 20
876.645151
 42
0.013503
  0
VERTEX
  8
0
 10
175.293375
 20
876.824460
 42
-0.009470
  0
VERTEX
  8
0
 10
170.749878
 20
877.160001
 42
-0.106597
  0
VERTEX
  8
0
 10
169.035020
 20
877.699968
 42
-0.211936
  0
VERTEX
  8
0
 10
168.240610
 20
878.776658
 42
-0.054547
  0
VERTEX
  8
0
 10
168.000000
 20
880.975610
 42
0.060510
  0
VERTEX
  8
0
 10
167.830270
 20
882.372965
 42
0.067703
  0
VERTEX
  8
0
 10
167.331455
 20
883.632993
 42
0.062837
  0
VERTEX
  8
0
 10
166.477033
 20
884.786207
 42
0.042720
  0
VERTEX
  8
0
 10
165.250000
 20
885.867283
 42
0.000000
  0
VERTEX
  8
0
 10
162.500000
 20
887.901379
 42
0.000000
  0
VERTEX
  8
0
 10
164.750000
 20
889.507393
 42
0.070849
  0
VERTEX
  8
0
 10
165.919415
 20
890.621941
 42
0.095506
  0
VERTEX
  8
0
 10
166.589730
 20
891.917327
 42
0.058909
  0
VERTEX
  8
0
 10
166.914297
 20
893.814910
 42
0.012931
  0
VERTEX
  8
0
 10
167.000000
 20
897.128269
 42
-0.007252
  0
VERTEX
  8
0
 10
167.053465
 20
900.814186
 42
-0.084995
  0
VERTEX
  8
0
 10
167.335943
 20
902.217851
 42
-0.231906
  0
VERTEX
  8
0
 10
167.995546
 20
902.828489
 42
-0.093254
  0
VERTEX
  8
0
 10
169.250000
 20
902.960875
 42
0.008570
  0
VERTEX
  8
0
 10
171.977763
 20
902.786914
 42
0.285682
  0
VERTEX
  8
0
 10
172.525280
 20
903.093166
 42
0.388394
  0
VERTEX
  8
0
 10
172.399962
 20
903.612778
 42
0.011414
  0
VERTEX
  8
0
 10
170.339286
 20
904.934741
 42
-0.059796
  0
VERTEX
  8
0
 10
168.063212
 20
906.726929
 42
-0.094122
  0
VERTEX
  8
0
 10
166.669659
 20
908.778628
 42
-0.122278
  0
VERTEX
  8
0
 10
166.331588
 20
910.801382
 42
-0.154968
  0
VERTEX
  8
0
 10
167.039826
 20
912.547988
 42
-0.044007
  0
VERTEX
  8
0
 10
168.117803
 20
913.636184
 42
-0.217433
  0
VERTEX
  8
0
 10
168.927780
 20
913.863807
 42
-0.136433
  0
VERTEX
  8
0
 10
169.866806
 20
913.438329
 42
-0.014392
  0
SEQEND
  0
POLYLINE
  8
0
 66
1
 70
1
  0
VERTEX
  8
0
 10
198.731374
 20
909.305878
 42
-0.216671
  0
VERTEX
  8
0
 10
198.568446
 20
907.759816
 42
-0.066061
  0
VERTEX
  8
0
 10
197.083385
 20
905.860770
 42
-0.066258
  0
VERTEX
  8
0
 10
195.161014
 20
904.420874
 42
-0.222822
  0
VERTEX
  8
0
 10
193.633077
 20
904.310560
 42
-0.107347
  0
VERTEX
  8
0
 10
192.136404
 20
905.291737
 42
-0.144611
  0
VERTEX
  8
0
 10
191.379025
 20
906.713700
 42
-0.139146
  0
VERTEX
  8
0
 10
191.501754
 20
908.361617
 42
-0.096475
  0
VERTEX
  8
0
 10
192.472986
 20
909.970149
 42
-0.129798
  0
VERTEX
  8
0
 10
194.018720
 20
910.976427
 42
-0.106569
  0
VERTEX
  8
0
 10
195.983668
 20
911.186670
 42
-0.115440
  0
VERTEX
  8
0
 10
197.739897
 20
910.574093
 42
-0.172577
  0
SEQEND
  0
POLYLINE
  8
0
 66
1
 70
1
  0
VERTEX
  8
0
 10
204.065741
 20
898.964816
 42
-0.082326
  0
VERTEX
  8
0
 10
204.826483
 20
898.379652
 42
-0.061569
  0
VERTEX
  8
0
 10
205.448817
 20
897.522247
 42
-0.059706
  0
VERTEX
  8
0
 10
205.860126
 20
896.508976
 42
-0.066681
  0
VERTEX
  8
0
 10
206.000000
 20
895.464816
 42
-0.046590
  0
VERTEX
  8
0
 10
205.885842
 20
894.242349
 42
-0.144562
  0
VERTEX
  8
0
 10
205.512151
 20
893.512772
 42
-0.151194
  0
VERTEX
  8
0
 10
204.814222
 20
893.122210
 42
-0.052566
  0
VERTEX
  8
0
 10
203.654988
 20
893.000000
 42
-0.069757
  0
VERTEX
  8
0
 10
202.626150
 20
893.144240
 42
-0.042014
  0
VERTEX
  8
0
 10
201.472129
 20
893.581990
 42
-0.041259
  0
VERTEX
  8
0
 10
200.375778
 20
894.222901
 42
-0.055997
  0
VERTEX
  8
0
 10
199.516975
 20
894.981242
 42
-0.029377
  0
VERTEX
  8
0
 10
198.635063
 20
896.078933
 42
-0.117307
  0
VERTEX
  8
0
 10
198.313643
 20
896.873172
 42
-0.151530
  0
VERTEX
  8
0
 10
198.425094
 20
897.611729
 42
-0.060619
  0
VERTEX
  8
0
 10
198.984433
 20
898.481242
 42
-0.058029
  0
VERTEX
  8
0
 10
200.071278
 20
899.518681
 42
-0.138713
  0
VERTEX
  8
0
 10
201.101491
 20
899.918913
 42
-0.114249
  0
VERTEX
  8
0
 10
202.320564
 20
899.756272
 42
-0.032826
  0
SEQEND
  0
POLYLINE
  8
0
 66
1
 70
1
  0
VERTEX
  8
0
 10
164.679258
 20
895.366762
 42
-0.027806
  0
VERTEX
  8
0
 10
165.422405
 20
894.082095
 42
-0.097118
  0
VERTEX
  8
0
 10
165.681390
 20
893.164951
 42
-0.128211
  0
VERTEX
  8
0
 10
165.540931
 20
892.363264
 42
-0.066159
  0
VERTEX
  8
0
 10
164.995845
 20
891.494994
 42
-0.078986
  0
VERTEX
  8
0
 10
163.715437
 20
890.371022
 42
-0.204184
  0
VERTEX
  8
0
 10
162.526386
 20
890.179193
 42
-0.116886
  0
VERTEX
  8
0
 10
161.103794
 20
890.911864
 42
-0.019274
  0
VERTEX
  8
0
 10
158.821278
 20
893.024876
 42
-0.018549
  0
VERTEX
  8
0
 10
157.368670
 20
894.589454
 42
-0.074396
  0
VERTEX
  8
0
 10
156.673906
 20
895.691016
 42
-0.137783
  0
VERTEX
  8
0
 10
156.549146
 20
896.574196
 42
-0.140722
  0
VERTEX
  8
0
 10
156.904551
 20
897.384990
 42
-0.184736
  0
VERTEX
  8
0
 10
158.468201
 20
898.265225
 42
-0.100676
  0
VERTEX
  8
0
 10
160.698753
 20
898.146207
 42
-0.087573
  0
VERTEX
  8
0
 10
162.984490
 20
897.101561
 42
-0.097147
  0
SEQEND
  0
POLYLINE
  8
0
 66
1
 70
1
  0
VERTEX
  8
0
 10
211.816422
 20
882.750000
 42
-0.082008
  0
VERTEX
  8
0
 10
211.725595
 20
880.901335
 42
-0.283206
  0
VERTEX
  8
0
 10
210.930527
 20
880.072653
 42
-0.180399
  0
VERTEX
  8
0
 10
209.470337
 20
880.223319
 42
-0.037827
  0
VERTEX
  8
0
 10
207.222506
 20
881.556704
 42
-0.061780
  0
VERTEX
  8
0
 10
205.343414
 20
883.253336
 42
-0.242025
  0
VERTEX
  8
0
 10
204.986175
 20
884.725491
 42
-0.288396
  0
VERTEX
  8
0
 10
205.968257
 20
885.682344
 42
-0.076889
  0
VERTEX
  8
0
 10
208.250000
 20
885.813358
 42
-0.032252
  0
VERTEX
  8
0
 10
209.978305
 20
885.533376
 42
-0.121741
  0
VERTEX
  8
0
 10
210.949869
 20
885.043059
 42
-0.139735
  0
VERTEX
  8
0
 10
211.507440
 20
884.198417
 42
-0.047844
  0
SEQEND
  0
POLYLINE
  8
0
 66
1
 70
1
  0
VERTEX
  8
0
 10
166.000000
 20
880.793557
 42
-0.186778
  0
VERTEX
  8
0
 10
165.081606
 20
878.420812
 42
-0.111585
  0
VERTEX
  8
0
 10
162.568408
 20
876.664506
 42
-0.111176
  0
VERTEX
  8
0
 10
159.536498
 20
876.155756
 42
-0.184607
  0
VERTEX
  8
0
 10
157.200000
 20
877.200000
 42
-0.097120
  0
VERTEX
  8
0
 10
156.207382
 20
878.676854
 42
-0.194297
  0
VERTEX
  8
0
 10
156.187566
 20
880.060301
 42
-0.149453
  0
VERTEX
  8
0
 10
157.184539
 20
881.328579
 42
-0.052514
  0
VERTEX
  8
0
 10
159.235969
 20
882.457171
 42
-0.066218
  0
VERTEX
  8
0
 10
161.656721
 20
883.116158
 42
-0.093951
  0
VERTEX
  8
0
 10
163.879452
 20
882.996436
 42
-0.130562
  0
VERTEX
  8
0
 10
165.415906
 20
882.155431
 42
-0.205398
  0
SEQEND
  0
POLYLINE
  8
0
 66
1
 70
1
  0
VERTEX
  8
0
 10
229.665632
 20
879.826498
 42
-0.015010
  0
VERTEX
  8
0
 10
232.191775
 20
878.494564
 42
-0.014166
  0
VERTEX
  8
0
 10
234.683597
 20
876.988797
 42
-0.014284
  0
VERTEX
  8
0
 10
236.813217
 20
875.530411
 42
-0.046930
  0
VERTEX
  8
0
 10
238.089946
 20
874.404257
 42
0.000000
  0
VERTEX
  8
0
 10
240.348628
 20
872.000000
 42
0.000000
  0
VERTEX
  8
0
 10
237.924314
 20
872.009769
 42
-0.061171
  0
VERTEX
  8
0
 10
236.646398
 20
872.171927
 42
-0.015688
  0
VERTEX
  8
0
 10
234.640786
 20
872.748174
 42
-0.015739
  0
VERTEX
  8
0
 10
232.376534
 20
873.555828
 42
-0.015397
  0
VERTEX
  8
0
 10
230.150703
 20
874.509769
 42
0.018725
  0
VERTEX
  8
0
 10
227.885024
 20
875.462994
 42
0.017461
  0
VERTEX
  8
0
 10
225.501370
 20
876.268495
 42
0.017749
  0
VERTEX
  8
0
 10
223.334615
 20
876.834392
 42
0.055048
  0
VERTEX
  8
0
 10
221.834962
 20
877.000000
 42
-0.029619
  0
VERTEX
  8
0
 10
220.557522
 20
877.075740
 42
-0.022436
  0
VERTEX
  8
0
 10
219.171722
 20
877.304085
 42
-0.022878
  0
VERTEX
  8
0
 10
217.886249
 20
877.637693
 42
-0.047969
  0
VERTEX
  8
0
 10
216.934259
 20
878.035184
 42
-0.116513
  0
VERTEX
  8
0
 10
215.760812
 20
879.071409
 42
-0.099166
  0
VERTEX
  8
0
 10
215.089147
 20
880.584579
 42
-0.105026
  0
VERTEX
  8
0
 10
215.072103
 20
882.165506
 42
-0.147785
  0
VERTEX
  8
0
 10
215.734050
 20
883.400716
 42
-0.231805
  0
VERTEX
  8
0
 10
217.266173
 20
883.925224
 42
-0.031363
  0
VERTEX
  8
0
 10
220.699864
 20
883.270434
 42
-0.030580
  0
VERTEX
  8
0
 10
224.966807
 20
881.892880
 42
-0.020448
  0
SEQEND
  0
POLYLINE
  8
0
 66
1
 70
1
  0
VERTEX
  8
0
 10
155.128249
 20
876.612852
 42
-0.071011
  0
VERTEX
  8
0
 10
155.329380
 20
874.938363
 42
-0.191120
  0
VERTEX
  8
0
 10
154.870818
 20
873.853538
 42
-0.085200
  0
VERTEX
  8
0
 10
153.495971
 20
872.865376
 42
-0.007862
  0
VERTEX
  8
0
 10
149.682769
 20
871.081906
 42
0.012702
  0
VERTEX
  8
0
 10
147.215092
 20
869.898503
 42
0.014391
  0
VERTEX
  8
0
 10
144.913033
 20
868.636853
 42
0.013678
  0
VERTEX
  8
0
 10
143.026227
 20
867.460534
 42
0.073456
  0
VERTEX
  8
0
 10
142.127555
 20
866.653894
 42
-0.088590
  0
VERTEX
  8
0
 10
141.376611
 20
866.019568
 42
-0.043267
  0
VERTEX
  8
0
 10
140.237608
 20
865.485831
 42
-0.041107
  0
VERTEX
  8
0
 10
138.921586
 20
865.122226
 42
-0.046884
  0
VERTEX
  8
0
 10
137.620953
 20
865.000000
 42
0.024182
  0
VERTEX
  8
0
 10
136.174248
 20
864.929990
 42
0.012997
  0
VERTEX
  8
0
 10
134.400725
 20
864.711274
 42
0.012915
  0
VERTEX
  8
0
 10
132.599986
 20
864.393770
 42
0.019739
  0
VERTEX
  8
0
 10
131.059630
 20
864.017102
 42
-0.009321
  0
VERTEX
  8
0
 10
129.725408
 20
863.661230
 42
-0.014237
  0
VERTEX
  8
0
 10
128.554751
 20
863.407372
 42
-0.008707
  0
VERTEX
  8
0
 10
127.584066
 20
863.243086
 42
-0.238273
  0
VERTEX
  8
0
 10
127.344999
 20
863.321668
 42
-0.293130
  0
VERTEX
  8
0
 10
127.292298
 20
863.562867
 42
-0.006136
  0
VERTEX
  8
0
 10
127.752915
 20
864.759505
 42
-0.012245
  0
VERTEX
  8
0
 10
128.360820
 20
866.180639
 42
-0.007688
  0
VERTEX
  8
0
 10
129.137324
 20
867.812760
 42
-0.027552
  0
VERTEX
  8
0
 10
130.234665
 20
869.753817
 42
-0.052956
  0
VERTEX
  8
0
 10
131.350981
 20
871.147208
 42
-0.065961
  0
VERTEX
  8
0
 10
132.541700
 20
872.067161
 42
-0.079742
  0
VERTEX
  8
0
 10
133.858557
 20
872.573279
 42
0.018941
  0
VERTEX
  8
0
 10
138.951103
 20
873.850124
 42
0.013724
  0
VERTEX
  8
0
 10
144.519015
 20
875.639745
 42
0.009139
  0
VERTEX
  8
0
 10
149.561189
 20
877.518721
 42
0.126439
  0
VERTEX
  8
0
 10
151.125026
 20
878.650648
 42
-0.103446
  0
VERTEX
  8
0
 10
152.308574
 20
879.592011
 42
-0.238527
  0
VERTEX
  8
0
 10
153.414747
 20
879.589192
 42
-0.162567
  0
VERTEX
  8
0
 10
154.381269
 20
878.607534
 42
-0.048535
  0
SEQEND
  0
POLYLINE
  8
0
 66
1
 70
1
  0
VERTEX
  8
0
 10
175.800558
 20
871.905854
 42
-0.103929
  0
VERTEX
  8
0
 10
175.617022
 20
869.894761
 42
-0.114931
  0
VERTEX
  8
0
 10
174.636258
 20
868.209220
 42
-0.133145
  0
VERTEX
  8
0
 10
173.139195
 20
867.290900
 42
-0.164433
  0
VERTEX
  8
0
 10
171.512735
 20
867.356740
 42
-0.154258
  0
VERTEX
  8
0
 10
170.510265
 20
868.155056
 42
-0.129506
  0
VERTEX
  8
0
 10
170.062287
 20
869.443545
 42
-0.093160
  0
VERTEX
  8
0
 10
170.248716
 20
871.150936
 42
-0.049253
  0
VERTEX
  8
0
 10
171.067472
 20
873.126072
 42
-0.127469
  0
VERTEX
  8
0
 10
172.320338
 20
874.484575
 42
-0.209113
  0
VERTEX
  8
0
 10
173.839792
 20
874.729742
 42
-0.192373
  0
VERTEX
  8
0
 10
175.146189
 20
873.772388
 42
-0.110996
  0
SEQEND
  0
POLYLINE
  8
0
 66
1
 70
1
  0
VERTEX
  8
0
 10
194.000000
 20
866.565100
 42
-0.075658
  0
VERTEX
  8
0
 10
193.956418
 20
866.278733
 42
-0.004366
  0
VERTEX
  8
0
 10
193.684132
 20
865.431016
 42
-0.006564
  0
VERTEX
  8
0
 10
193.336606
 20
864.425121
 42
-0.004773
  0
VERTEX
  8
0
 10
192.924705
 20
863.315100
 42
0.069832
  0
VERTEX
  8
0
 10
191.993109
 20
859.252862
 42
0.035001
  0
VERTEX
  8
0
 10
191.908551
 20
853.975572
 42
0.034972
  0
VERTEX
  8
0
 10
192.564125
 20
848.710115
 42
0.066514
  0
VERTEX
  8
0
 10
193.931395
 20
844.673866
 42
0.000000
  0
VERTEX
  8
0
 10
195.966086
 20
840.561391
 42
0.000000
  0
VERTEX
  8
0
 10
193.892389
 20
836.277706
 42
-0.018662
  0
VERTEX
  8
0
 10
193.039332
 20
834.671280
 42
-0.031206
  0
VERTEX
  8
0
 10
192.191144
 20
833.398640
 42
-0.033336
  0
VERTEX
  8
0
 10
191.445129
 20
832.542745
 42
-0.348348
  0
VERTEX
  8
0
 10
191.012916
 20
832.492018
 42
-0.099657
  0
VERTEX
  8
0
 10
190.595238
 20
832.882871
 42
-0.011215
  0
VERTEX
  8
0
 10
189.860968
 20
833.961983
 42
-0.013247
  0
VERTEX
  8
0
 10
189.041671
 20
835.302638
 42
-0.010394
  0
VERTEX
  8
0
 10
188.222910
 20
836.796840
 42
-0.036241
  0
VERTEX
  8
0
 10
187.244984
 20
839.058993
 42
-0.049206
  0
VERTEX
  8
0
 10
186.722392
 20
841.220175
 42
-0.038540
  0
VERTEX
  8
0
 10
186.561677
 20
843.814114
 42
-0.013469
  0
VERTEX
  8
0
 10
186.719129
 20
847.551833
 42
0.022689
  0
VERTEX
  8
0
 10
186.824594
 20
852.007040
 42
0.041638
  0
VERTEX
  8
0
 10
186.444631
 20
855.614843
 42
0.037888
  0
VERTEX
  8
0
 10
185.441153
 20
859.328658
 42
0.015619
  0
VERTEX
  8
0
 10
183.551335
 20
864.188429
 42
-0.123129
  0
VERTEX
  8
0
 10
183.413273
 20
865.060090
 42
-0.245181
  0
VERTEX
  8
0
 10
183.779557
 20
865.633036
 42
-0.095439
  0
VERTEX
  8
0
 10
184.832544
 20
865.994655
 42
-0.012866
  0
VERTEX
  8
0
 10
187.166638
 20
866.263722
 42
0.001311
  0
VERTEX
  8
0
 10
188.917350
 20
866.424646
 42
0.001490
  0
VERTEX
  8
0
 10
190.594262
 20
866.588265
 42
0.001352
  0
VERTEX
  8
0
 10
192.017981
 20
866.735350
 42
0.008305
  0
VERTEX
  8
0
 10
192.750000
 20
866.825293
 42
-0.032533
  0
VERTEX
  8
0
 10
193.228999
 20
866.860719
 42
-0.053553
  0
VERTEX
  8
0
 10
193.632812
 20
866.820928
 42
-0.074378
  0
VERTEX
  8
0
 10
193.908956
 20
866.718966
 42
-0.273694
  0
SEQEND
  0
POLYLINE
  8
0
 66
1
 70
1
  0
VERTEX
  8
0
 10
301.000000
 20
947.975940
 42
0.024495
  0
VERTEX
  8
0
 10
286.884189
 20
945.888155
 42
0.028208
  0
VERTEX
  8
0
 10
273.703198
 20
942.491275
 42
0.028506
  0
VERTEX
  8
0
 10
261.108906
 20
937.669746
 42
0.026064
  0
VERTEX
  8
0
 10
248.750000
 20
931.318052
 42
0.006075
  0
VERTEX
  8
0
 10
245.781571
 20
929.542721
 42
0.009609
  0
VERTEX
  8
0
 10
243.285905
 20
927.941791
 42
0.004075
  0
VERTEX
  8
0
 10
241.219080
 20
926.534674
 42
0.258923
  0
VERTEX
  8
0
 10
241.031803
 20
926.154961
 42
0.103827
  0
VERTEX
  8
0
 10
241.127103
 20
925.790020
 42
0.015533
  0
VERTEX
  8
0
 10
241.488185
 20
925.118580
 42
0.016896
  0
VERTEX
  8
0
 10
241.972870
 20
924.342501
 42
0.013853
  0
VERTEX
  8
0
 10
242.540784
 20
923.546589
 42
0.149328
  0
VERTEX
  8
0
 10
243.776724
 20
922.651357
 42
0.157173
  0
VERTEX
  8
0
 10
245.274600
 20
922.623478
 42
0.044560
  0
VERTEX
  8
0
 10
247.837635
 20
923.653867
 42
0.003087
  0
VERTEX
  8
0
 10
254.758981
 20
927.235066
 42
-0.045489
  0
VERTEX
  8
0
 10
277.421695
 20
936.623343
 42
-0.049189
  0
VERTEX
  8
0
 10
300.822864
 20
941.452913
 42
-0.049827
  0
VERTEX
  8
0
 10
324.442971
 20
941.586418
 42
-0.049030
  0
VERTEX
  8
0
 10
347.755929
 20
937.056890
 42
0.013282
  0
VERTEX
  8
0
 10
351.103658
 20
936.154413
 42
0.038902
  0
VERTEX
  8
0
 10
353.461538
 20
935.776341
 42
0.051726
  0
VERTEX
  8
0
 10
355.444265
 20
935.820238
 42
0.043098
  0
VERTEX
  8
0
 10
357.505929
 20
936.263202
 42
0.019898
  0
VERTEX
  8
0
 10
358.844540
 20
936.733068
 42
0.029315
  0
VERTEX
  8
0
 10
359.973617
 20
937.259079
 42
0.028928
  0
VERTEX
  8
0
 10
360.803738
 20
937.770810
 42
0.244856
  0
VERTEX
  8
0
 10
361.000000
 20
938.147553
 42
0.227078
  0
VERTEX
  8
0
 10
360.788206
 20
938.589852
 42
0.011754
  0
VERTEX
  8
0
 10
359.499240
 20
939.578141
 42
0.016734
  0
VERTEX
  8
0
 10
357.848715
 20
940.700437
 42
0.011193
  0
VERTEX
  8
0
 10
355.891029
 20
941.877398
 42
0.081344
  0
VERTEX
  8
0
 10
347.164086
 20
945.128278
 42
0.020905
  0
VERTEX
  8
0
 10
332.243097
 20
947.420814
 42
0.021819
  0
VERTEX
  8
0
 10
315.772575
 20
948.526275
 42
0.030320
  0
SEQEND
  0
POLYLINE
  8
0
 66
1
 70
1
  0
VERTEX
  8
0
 10
530.651714
 20
940.250000
 42
0.005384
  0
VERTEX
  8
0
 10
530.407034
 20
937.322874
 42
0.004079
  0
VERTEX
  8
0
 10
530.199394
 20
934.106623
 42
0.004124
  0
VERTEX
  8
0
 10
530.054006
 20
931.084036
 42
0.009575
  0
VERTEX
  8
0
 10
530.007109
 20
928.815100
 42
-0.030326
  0
VERTEX
  8
0
 10
529.780485
 20
925.173408
 42
-0.042139
  0
VERTEX
  8
0
 10
529.109040
 20
921.976365
 42
-0.048901
  0
VERTEX
  8
0
 10
528.159317
 20
919.659090
 42
-0.277864
  0
VERTEX
  8
0
 10
527.064892
 20
919.000000
 42
-0.300252
  0
VERTEX
  8
0
 10
526.263493
 20
919.528926
 42
-0.023818
  0
VERTEX
  8
0
 10
525.330797
 20
922.034030
 42
-0.020960
  0
VERTEX
  8
0
 10
524.291073
 20
925.836998
 42
-0.006925
  0
VERTEX
  8
0
 10
523.077461
 20
931.500000
 42
0.000000
  0
VERTEX
  8
0
 10
522.078154
 20
936.500000
 42
0.000000
  0
VERTEX
  8
0
 10
522.406217
 20
929.970588
 42
0.020751
  0
VERTEX
  8
0
 10
522.688236
 20
926.903667
 42
0.023940
  0
VERTEX
  8
0
 10
523.216970
 20
924.015465
 42
0.025661
  0
VERTEX
  8
0
 10
523.971128
 20
921.395195
 42
0.035062
  0
VERTEX
  8
0
 10
524.931069
 20
919.135115
 42
0.000000
  0
VERTEX
  8
0
 10
527.127858
 20
914.829055
 42
0.000000
  0
VERTEX
  8
0
 10
523.015914
 20
907.664527
 42
-0.006685
  0
VERTEX
  8
0
 10
521.179015
 20
904.560827
 42
-0.004858
  0
VERTEX
  8
0
 10
519.055956
 20
901.155494
 42
-0.004909
  0
VERTEX
  8
0
 10
516.977885
 20
897.962957
 42
-0.010718
  0
VERTEX
  8
0
 10
515.309425
 20
895.566943
 42
0.000000
  0
VERTEX
  8
0
 10
511.714879
 20
890.633886
 42
0.000000
  0
VERTEX
  8
0
 10
509.937838
 20
892.828439
 42
-0.094411
  0
VERTEX
  8
0
 10
508.172315
 20
896.119455
 42
-0.035460
  0
VERTEX
  8
0
 10
506.957897
 20
901.231414
 42
-0.027005
  0
VERTEX
  8
0
 10
506.204640
 20
908.155960
 42
-0.012150
  0
VERTEX
  8
0
 10
505.929715
 20
917.299221
 42
0.004972
  0
VERTEX
  8
0
 10
505.849436
 20
922.410323
 42
0.016311
  0
VERTEX
  8
0
 10
505.652782
 20
925.781349
 42
0.039097
  0
VERTEX
  8
0
 10
505.364398
 20
927.471032
 42
0.717136
  0
VERTEX
  8
0
 10
505.000000
 20
927.500000
 42
0.105109
  0
VERTEX
  8
0
 10
503.820721
 20
921.573212
 42
0.017107
  0
VERTEX
  8
0
 10
504.377769
 20
909.792271
 42
0.019534
  0
VERTEX
  8
0
 10
505.828276
 20
897.815270
 42
0.057584
  0
VERTEX
  8
0
 10
508.074243
 20
889.843544
 42
-0.077974
  0
VERTEX
  8
0
 10
508.485570
 20
888.118173
 42
-0.077048
  0
VERTEX
  8
0
 10
508.351426
 20
886.342286
 42
-0.043183
  0
VERTEX
  8
0
 10
507.570852
 20
883.950810
 42
-0.008614
  0
VERTEX
  8
0
 10
505.741410
 20
879.843544
 42
0.001558
  0
VERTEX
  8
0
 10
504.358543
 20
876.853146
 42
0.001701
  0
VERTEX
  8
0
 10
503.034600
 20
873.940474
 42
0.001592
  0
VERTEX
  8
0
 10
501.917913
 20
871.440184
 42
0.008451
  0
VERTEX
  8
0
 10
501.334534
 20
870.060198
 42
-0.064160
  0
VERTEX
  8
0
 10
500.624828
 20
868.794977
 42
-0.384363
  0
VERTEX
  8
0
 10
499.945427
 20
868.658992
 42
-0.094369
  0
VERTEX
  8
0
 10
498.990215
 20
869.504490
 42
-0.004135
  0
VERTEX
  8
0
 10
496.288270
 20
873.060198
 42
-0.018094
  0
VERTEX
  8
0
 10
492.927169
 20
877.917172
 42
-0.022081
  0
VERTEX
  8
0
 10
490.157367
 20
882.699026
 42
-0.022401
  0
VERTEX
  8
0
 10
487.851944
 20
887.646547
 42
-0.019644
  0
VERTEX
  8
0
 10
485.885745
 20
893.000000
 42
0.010550
  0
VERTEX
  8
0
 10
485.165218
 20
895.077786
 42
0.042306
  0
VERTEX
  8
0
 10
484.593325
 20
896.294264
 42
0.328089
  0
VERTEX
  8
0
 10
484.271146
 20
896.435338
 42
0.344314
  0
VERTEX
  8
0
 10
484.053777
 20
896.169961
 42
0.083309
  0
VERTEX
  8
0
 10
484.590305
 20
892.447806
 42
0.010659
  0
VERTEX
  8
0
 10
487.222435
 20
884.781064
 42
0.012544
  0
VERTEX
  8
0
 10
490.224262
 20
877.202004
 42
0.050395
  0
VERTEX
  8
0
 10
492.623076
 20
872.841152
 42
0.031845
  0
VERTEX
  8
0
 10
493.793338
 20
871.355737
 42
0.025857
  0
VERTEX
  8
0
 10
495.223130
 20
869.918067
 42
0.026581
  0
VERTEX
  8
0
 10
496.684672
 20
868.728194
 42
0.059431
  0
VERTEX
  8
0
 10
497.931963
 20
868.028182
 42
-0.037784
  0
VERTEX
  8
0
 10
499.572472
 20
867.198505
 42
-0.180469
  0
VERTEX
  8
0
 10
500.213225
 20
866.389630
 42
-0.114581
  0
VERTEX
  8
0
 10
500.318510
 20
865.149181
 42
-0.011395
  0
VERTEX
  8
0
 10
499.821366
 20
862.187030
 42
0.017091
  0
VERTEX
  8
0
 10
499.495629
 20
860.100893
 42
0.011514
  0
VERTEX
  8
0
 10
499.260520
 20
857.701815
 42
0.011606
  0
VERTEX
  8
0
 10
499.140324
 20
855.367690
 42
0.022488
  0
VERTEX
  8
0
 10
499.171574
 20
853.500000
 42
-0.012639
  0
VERTEX
  8
0
 10
499.263567
 20
850.975331
 42
-0.161147
  0
VERTEX
  8
0
 10
498.979591
 20
850.083907
 42
-0.233101
  0
VERTEX
  8
0
 10
498.265659
 20
849.707835
 42
-0.028953
  0
VERTEX
  8
0
 10
496.459338
 20
849.764003
 42
0.000000
  0
VERTEX
  8
0
 10
493.500000
 20
850.028005
 42
0.000000
  0
VERTEX
  8
0
 10
496.250000
 20
847.930596
 42
-0.043894
  0
VERTEX
  8
0
 10
497.412066
 20
846.871002
 42
-0.052717
  0
VERTEX
  8
0
 10
498.293243
 20
845.683582
 42
-0.057091
  0
VERTEX
  8
0
 10
498.852395
 20
844.428205
 42
-0.070632
  0
VERTEX
  8
0
 10
499.061093
 20
843.166593
 42
0.054683
  0
VERTEX
  8
0
 10
499.530215
 20
839.637742
 42
0.021059
  0
VERTEX
  8
0
 10
500.914681
 20
834.886392
 42
0.014030
  0
VERTEX
  8
0
 10
502.589791
 20
830.349619
 42
0.220284
  0
VERTEX
  8
0
 10
503.761545
 20
829.246152
 42
0.439796
  0
VERTEX
  8
0
 10
504.665465
 20
829.748120
 42
0.050629
  0
VERTEX
  8
0
 10
505.014235
 20
832.334650
 42
0.044134
  0
VERTEX
  8
0
 10
504.855757
 20
835.194949
 42
0.221956
  0
VERTEX
  8
0
 10
504.000000
 20
836.500000
 42
-0.233947
  0
VERTEX
  8
0
 10
503.039896
 20
838.039607
 42
-0.049131
  0
VERTEX
  8
0
 10
503.040603
 20
841.307883
 42
-0.049392
  0
VERTEX
  8
0
 10
503.740824
 20
844.814317
 42
-0.092944
  0
VERTEX
  8
0
 10
505.072580
 20
847.365141
 42
0.000000
  0
VERTEX
  8
0
 10
507.145160
 20
850.000000
 42
0.000000
  0
VERTEX
  8
0
 10
505.041195
 20
850.000000
 42
-0.148739
  0
VERTEX
  8
0
 10
503.346874
 20
850.515425
 42
-0.183772
  0
VERTEX
  8
0
 10
502.399142
 20
851.852305
 42
-0.081641
  0
VERTEX
  8
0
 10
502.164866
 20
854.440396
 42
-0.015132
  0
VERTEX
  8
0
 10
502.657631
 20
859.211901
 42
0.000000
  0
VERTEX
  8
0
 10
503.500000
 20
865.500000
 42
0.000000
  0
VERTEX
  8
0
 10
509.670260
 20
866.090527
 42
0.024656
  0
VERTEX
  8
0
 10
512.883026
 20
866.558743
 42
0.032468
  0
VERTEX
  8
0
 10
515.744944
 20
867.316805
 42
0.031542
  0
VERTEX
  8
0
 10
518.548100
 20
868.458941
 42
0.021383
  0
VERTEX
  8
0
 10
521.586991
 20
870.090527
 42
0.013240
  0
VERTEX
  8
0
 10
523.821447
 20
871.497551
 42
0.017328
  0
VERTEX
  8
0
 10
525.781202
 20
872.905821
 42
0.014964
  0
VERTEX
  8
0
 10
527.316210
 20
874.166727
 42
0.133660
  0
VERTEX
  8
0
 10
527.795643
 20
874.886734
 42
0.549154
  0
VERTEX
  8
0
 10
527.584407
 20
875.146525
 42
0.073468
  0
VERTEX
  8
0
 10
526.749547
 20
874.921803
 42
0.033706
  0
VERTEX
  8
0
 10
525.349500
 20
874.198254
 42
0.014564
  0
VERTEX
  8
0
 10
523.585447
 20
873.058789
 42
-0.029569
  0
VERTEX
  8
0
 10
521.108075
 20
871.561909
 42
-0.029423
  0
VERTEX
  8
0
 10
518.467381
 20
870.364972
 42
-0.028109
  0
VERTEX
  8
0
 10
515.592246
 20
869.442288
 42
-0.022534
  0
VERTEX
  8
0
 10
512.411780
 20
868.766812
 42
-0.022175
  0
VERTEX
  8
0
 10
506.567087
 20
868.062832
 42
-0.314861
  0
VERTEX
  8
0
 10
504.851594
 20
869.078461
 42
-0.217741
  0
VERTEX
  8
0
 10
504.857692
 20
871.421591
 42
-0.012111
  0
VERTEX
  8
0
 10
508.153077
 20
878.146923
 42
-0.007268
  0
VERTEX
  8
0
 10
510.819288
 20
883.093399
 42
-0.053420
  0
VERTEX
  8
0
 10
512.368038
 20
885.282910
 42
-0.105072
  0
VERTEX
  8
0
 10
513.893027
 20
886.416062
 42
-0.068420
  0
VERTEX
  8
0
 10
516.001112
 20
887.052126
 42
0.061324
  0
VERTEX
  8
0
 10
520.074665
 20
888.218673
 42
0.029452
  0
VERTEX
  8
0
 10
524.952781
 20
890.637274
 42
0.029295
  0
VERTEX
  8
0
 10
529.639338
 20
893.692693
 42
0.047990
  0
VERTEX
  8
0
 10
533.160838
 20
896.858305
 42
0.000393
  0
VERTEX
  8
0
 10
535.360917
 20
899.258736
 42
0.105377
  0
VERTEX
  8
0
 10
535.502154
 20
899.499178
 42
0.768726
  0
VERTEX
  8
0
 10
535.441542
 20
899.538990
 42
0.000701
  0
VERTEX
  8
0
 10
533.462127
 20
897.764043
 42
-0.064765
  0
VERTEX
  8
0
 10
529.142029
 20
894.789169
 42
-0.025839
  0
VERTEX
  8
0
 10
522.570921
 20
891.838711
 42
-0.019563
  0
VERTEX
  8
0
 10
516.251241
 20
889.665311
 42
-0.502604
  0
VERTEX
  8
0
 10
515.000000
 20
890.595630
 42
-0.117838
  0
VERTEX
  8
0
 10
515.086033
 20
890.955608
 42
-0.010149
  0
VERTEX
  8
0
 10
515.533742
 20
891.796014
 42
-0.012942
  0
VERTEX
  8
0
 10
516.121076
 20
892.785534
 42
-0.009680
  0
VERTEX
  8
0
 10
516.816995
 20
893.845630
 42
0.013912
  0
VERTEX
  8
0
 10
517.843412
 20
895.438394
 42
0.002154
  0
VERTEX
  8
0
 10
519.774587
 20
898.657779
 42
0.002401
  0
VERTEX
  8
0
 10
522.018391
 20
902.476779
 42
0.002086
  0
VERTEX
  8
0
 10
524.333870
 20
906.500000
 42
-0.002287
  0
VERTEX
  8
0
 10
526.643223
 20
910.508841
 42
-0.002691
  0
VERTEX
  8
0
 10
528.868516
 20
914.284353
 42
-0.002362
  0
VERTEX
  8
0
 10
530.780314
 20
917.454309
 42
-0.016711
  0
VERTEX
  8
0
 10
531.766875
 20
918.957372
 42
0.017061
  0
VERTEX
  8
0
 10
532.357878
 20
919.859161
 42
0.066480
  0
VERTEX
  8
0
 10
532.625146
 20
920.468654
 42
0.377286
  0
VERTEX
  8
0
 10
532.529674
 20
920.670896
 42
0.244236
  0
VERTEX
  8
0
 10
532.254898
 20
920.651382
 42
-0.512584
  0
VERTEX
  8
0
 10
531.659242
 20
920.901355
 42
-0.044944
  0
VERTEX
  8
0
 10
531.396991
 20
922.813458
 42
-0.020145
  0
VERTEX
  8
0
 10
531.374281
 20
926.482412
 42
-0.003457
  0
VERTEX
  8
0
 10
531.659929
 20
933.444010
 42
0.003996
  0
VERTEX
  8
0
 10
532.033395
 20
942.791854
 42
0.044781
  0
VERTEX
  8
0
 10
531.819544
 20
946.502760
 42
0.868620
  0
VERTEX
  8
0
 10
531.366877
 20
946.499735
 42
0.009886
  0
SEQEND
  0
POLYLINE
  8
0
 66
1
 70
1
  0
VERTEX
  8
0
 10
29.997001
 20
906.010457
 42
0.103654
  0
VERTEX
  8
0
 10
34.360026
 20
897.748614
 42
0.036573
  0
VERTEX
  8
0
 10
43.688292
 20
888.042519
 42
0.036685
  0
VERTEX
  8
0
 10
54.903684
 20
879.359810
 42
0.062066
  0
VERTEX
  8
0
 10
65.528196
 20
874.076232
 42
0.000000
  0
VERTEX
  8
0
 10
68.500000
 20
873.033305
 42
0.000000
  0
VERTEX
  8
0
 10
65.007445
 20
875.766653
 42
-0.021173
  0
VERTEX
  8
0
 10
59.583085
 20
880.395126
 42
-0.026836
  0
VERTEX
  8
0
 10
55.005255
 20
885.131229
 42
-0.029966
  0
VERTEX
  8
0
 10
51.537526
 20
889.647314
 42
-0.063662
  0
VERTEX
  8
0
 10
49.553930
 20
893.573955
 42
0.003865
  0
VERTEX
  8
0
 10
47.354860
 20
899.629359
 42
0.052080
  0
VERTEX
  8
0
 10
46.308850
 20
901.739824
 42
0.152336
  0
VERTEX
  8
0
 10
45.215545
 20
902.668648
 42
0.100812
  0
VERTEX
  8
0
 10
43.588826
 20
903.000000
 42
0.060190
  0
VERTEX
  8
0
 10
42.503411
 20
902.868863
 42
0.083731
  0
VERTEX
  8
0
 10
41.606341
 20
902.481589
 42
0.090193
  0
VERTEX
  8
0
 10
40.933095
 20
901.848698
 42
0.082449
  0
VERTEX
  8
0
 10
40.500000
 20
901.000000
 42
-0.108295
  0
VERTEX
  8
0
 10
39.664568
 20
899.551255
 42
-0.323146
  0
VERTEX
  8
0
 10
38.606568
 20
899.329222
 42
-0.096423
  0
VERTEX
  8
0
 10
36.990444
 20
900.459963
 42
-0.008934
  0
VERTEX
  8
0
 10
33.649625
 20
904.044805
 42
0.002578
  0
VERTEX
  8
0
 10
30.739818
 20
907.247841
 42
0.083815
  0
VERTEX
  8
0
 10
29.914139
 20
907.889895
 42
0.626202
  0
VERTEX
  8
0
 10
29.614089
 20
907.673309
 42
0.026492
  0
SEQEND
  0
POLYLINE
  8
0
 66
1
 70
1
  0
VERTEX
  8
0
 10
276.330203
 20
833.137562
 42
-0.030811
  0
VERTEX
  8
0
 10
266.779310
 20
825.330566
 42
-0.056610
  0
VERTEX
  8
0
 10
258.026700
 20
820.428233
 42
-0.059509
  0
VERTEX
  8
0
 10
248.703826
 20
817.761659
 42
-0.037923
  0
VERTEX
  8
0
 10
237.449669
 20
816.815215
 42
-0.039264
  0
VERTEX
  8
0
 10
227.212361
 20
817.537086
 42
-0.049166
  0
VERTEX
  8
0
 10
217.985966
 20
819.864868
 42
-0.052771
  0
VERTEX
  8
0
 10
209.940391
 20
823.759616
 42
-0.058852
  0
VERTEX
  8
0
 10
203.207508
 20
829.136062
 42
0.010233
  0
VERTEX
  8
0
 10
200.936329
 20
831.342541
 42
0.060216
  0
VERTEX
  8
0
 10
199.596737
 20
832.319661
 42
0.165699
  0
VERTEX
  8
0
 10
198.702657
 20
832.483738
 42
0.221075
  0
VERTEX
  8
0
 10
198.022186
 20
832.035898
 42
0.066361
  0
VERTEX
  8
0
 10
197.732947
 20
831.390027
 42
0.054660
  0
VERTEX
  8
0
 10
197.598186
 20
830.646527
 42
0.056577
  0
VERTEX
  8
0
 10
197.629308
 20
829.922161
 42
0.088790
  0
VERTEX
  8
0
 10
197.832540
 20
829.334751
 42
0.062680
  0
VERTEX
  8
0
 10
200.074381
 20
826.294640
 42
0.013165
  0
VERTEX
  8
0
 10
204.762666
 20
821.620665
 42
0.013427
  0
VERTEX
  8
0
 10
209.703253
 20
817.193108
 42
0.058089
  0
VERTEX
  8
0
 10
212.976208
 20
815.012138
 42
0.095667
  0
VERTEX
  8
0
 10
228.960613
 20
810.398594
 42
0.065308
  0
VERTEX
  8
0
 10
247.904859
 20
811.160416
 42
0.064759
  0
VERTEX
  8
0
 10
266.191559
 20
816.816364
 42
0.089662
  0
VERTEX
  8
0
 10
280.250000
 20
826.603281
 42
0.014620
  0
VERTEX
  8
0
 10
282.774662
 20
829.288618
 42
0.054261
  0
VERTEX
  8
0
 10
284.116801
 20
831.180929
 42
0.076320
  0
VERTEX
  8
0
 10
284.778574
 20
832.959813
 42
0.050996
  0
VERTEX
  8
0
 10
285.000000
 20
835.125194
 42
0.018588
  0
VERTEX
  8
0
 10
284.945278
 20
836.596638
 42
0.025562
  0
VERTEX
  8
0
 10
284.779688
 20
837.909597
 42
0.024130
  0
VERTEX
  8
0
 10
284.542592
 20
838.946367
 42
0.192493
  0
VERTEX
  8
0
 10
284.250000
 20
839.328545
 42
0.302233
  0
VERTEX
  8
0
 10
283.728862
 20
839.302492
 42
0.006632
  0
VERTEX
  8
0
 10
281.614185
 20
837.694157
 42
0.012822
  0
VERTEX
  8
0
 10
279.132754
 20
835.649765
 42
0.008024
  0
SEQEND
  0
POLYLINE
  8
0
 66
1
 70
1
  0
VERTEX
  8
0
 10
429.520692
 20
803.932478
 42
0.042257
  0
VERTEX
  8
0
 10
426.890774
 20
803.260725
 42
0.010533
  0
VERTEX
  8
0
 10
422.727073
 20
801.714336
 42
0.010690
  0
VERTEX
  8
0
 10
418.021916
 20
799.735819
 42
0.010556
  0
VERTEX
  8
0
 10
413.385695
 20
797.550097
 42
-0.004747
  0
VERTEX
  8
0
 10
409.007871
 20
795.423685
 42
-0.006819
  0
VERTEX
  8
0
 10
405.087540
 20
793.630341
 42
-0.003911
  0
VERTEX
  8
0
 10
401.761577
 20
792.194371
 42
-0.100271
  0
VERTEX
  8
0
 10
400.802094
 20
792.000000
 42
0.173475
  0
VERTEX
  8
0
 10
399.059430
 20
791.376623
 42
0.036872
  0
VERTEX
  8
0
 10
396.688771
 20
789.119930
 42
0.038965
  0
VERTEX
  8
0
 10
394.573152
 20
786.385073
 42
0.084830
  0
VERTEX
  8
0
 10
393.515835
 20
783.960851
 42
0.081993
  0
VERTEX
  8
0
 10
393.400671
 20
782.494934
 42
0.076325
  0
VERTEX
  8
0
 10
393.755275
 20
781.030521
 42
0.052470
  0
VERTEX
  8
0
 10
394.676702
 20
779.322707
 42
0.017455
  0
VERTEX
  8
0
 10
396.364137
 20
777.030209
 42
-0.010857
  0
VERTEX
  8
0
 10
398.554828
 20
774.134803
 42
-0.099381
  0
VERTEX
  8
0
 10
399.206652
 20
772.705588
 42
-0.129958
  0
VERTEX
  8
0
 10
399.166049
 20
771.290648
 42
-0.023368
  0
VERTEX
  8
0
 10
398.294445
 20
768.777871
 42
0.028600
  0
VERTEX
  8
0
 10
397.135279
 20
765.319703
 42
0.358824
  0
VERTEX
  8
0
 10
397.661723
 20
764.149615
 42
0.257929
  0
VERTEX
  8
0
 10
399.182444
 20
764.219424
 42
0.019628
  0
VERTEX
  8
0
 10
402.722524
 20
766.589599
 42
-0.035992
  0
VERTEX
  8
0
 10
404.122913
 20
767.462271
 42
-0.232427
  0
VERTEX
  8
0
 10
404.931610
 20
767.485390
 42
-0.141910
  0
VERTEX
  8
0
 10
405.681749
 20
766.840491
 42
-0.011428
  0
VERTEX
  8
0
 10
407.070422
 20
764.605216
 42
0.037330
  0
VERTEX
  8
0
 10
408.499972
 20
762.549658
 42
0.144305
  0
VERTEX
  8
0
 10
409.767056
 20
761.679314
 42
0.343776
  0
VERTEX
  8
0
 10
410.638936
 20
761.994614
 42
0.131679
  0
VERTEX
  8
0
 10
411.045104
 20
763.309017
 42
-0.053528
  0
VERTEX
  8
0
 10
411.138159
 20
763.947138
 42
-0.012690
  0
VERTEX
  8
0
 10
411.432748
 20
764.982752
 42
-0.012914
  0
VERTEX
  8
0
 10
411.834448
 20
766.161887
 42
-0.012417
  0
VERTEX
  8
0
 10
412.301405
 20
767.334393
 42
0.000000
  0
VERTEX
  8
0
 10
413.512601
 20
770.168786
 42
0.000000
  0
VERTEX
  8
0
 10
417.393805
 20
767.084393
 42
0.015711
  0
VERTEX
  8
0
 10
418.979670
 20
765.903448
 42
0.019241
  0
VERTEX
  8
0
 10
420.535139
 20
764.906040
 42
0.018026
  0
VERTEX
  8
0
 10
421.885529
 20
764.175916
 42
0.115411
  0
VERTEX
  8
0
 10
422.637505
 20
764.000000
 42
0.258908
  0
VERTEX
  8
0
 10
423.586687
 20
764.526816
 42
0.144737
  0
VERTEX
  8
0
 10
423.949149
 20
765.836789
 42
0.089525
  0
VERTEX
  8
0
 10
423.577683
 20
767.706621
 42
0.059151
  0
VERTEX
  8
0
 10
422.538563
 20
769.641481
 42
-0.079142
  0
VERTEX
  8
0
 10
421.840377
 20
771.075626
 42
-0.089913
  0
VERTEX
  8
0
 10
421.664008
 20
772.592439
 42
-0.045866
  0
VERTEX
  8
0
 10
422.006539
 20
774.780930
 42
-0.007215
  0
VERTEX
  8
0
 10
423.134286
 20
778.997294
 42
0.005439
  0
VERTEX
  8
0
 10
424.418698
 20
783.731972
 42
0.060524
  0
VERTEX
  8
0
 10
424.678021
 20
785.668445
 42
0.119451
  0
VERTEX
  8
0
 10
424.349889
 20
787.098490
 42
0.043461
  0
VERTEX
  8
0
 10
423.255133
 20
788.883307
 42
0.057814
  0
VERTEX
  8
0
 10
422.217110
 20
789.991845
 42
0.028066
  0
VERTEX
  8
0
 10
420.665786
 20
791.162914
 42
0.027392
  0
VERTEX
  8
0
 10
418.893855
 20
792.214808
 42
0.035371
  0
VERTEX
  8
0
 10
417.159410
 20
792.969166
 42
-0.016642
  0
VERTEX
  8
0
 10
415.565722
 20
793.592471
 42
-0.024806
  0
VERTEX
  8
0
 10
414.221827
 20
794.251124
 42
-0.022158
  0
VERTEX
  8
0
 10
413.213196
 20
794.868983
 42
-0.249193
  0
VERTEX
  8
0
 10
413.000000
 20
795.270193
 42
-0.296478
  0
VERTEX
  8
0
 10
413.731680
 20
796.395685
 42
-0.022671
  0
VERTEX
  8
0
 10
417.265806
 20
797.776920
 42
-0.023513
  0
VERTEX
  8
0
 10
422.193792
 20
799.195177
 42
-0.011691
  0
VERTEX
  8
0
 10
428.551847
 20
800.549187
 42
-0.035415
  0
VERTEX
  8
0
 10
439.163374
 20
801.781844
 42
-0.021844
  0
VERTEX
  8
0
 10
451.735872
 20
801.796464
 42
-0.021831
  0
VERTEX
  8
0
 10
464.279616
 20
800.712844
 42
-0.034990
  0
VERTEX
  8
0
 10
474.806424
 20
798.581362
 42
-0.028728
  0
VERTEX
  8
0
 10
487.415746
 20
794.302159
 42
-0.031703
  0
VERTEX
  8
0
 10
499.028318
 20
788.721305
 42
-0.032654
  0
VERTEX
  8
0
 10
509.529279
 20
781.891338
 42
-0.034771
  0
VERTEX
  8
0
 10
518.819740
 20
773.882243
 42
-0.011856
  0
VERTEX
  8
0
 10
521.413677
 20
771.186246
 42
-0.010558
  0
VERTEX
  8
0
 10
523.981670
 20
768.265866
 42
-0.010658
  0
VERTEX
  8
0
 10
526.179406
 20
765.541716
 42
-0.031895
  0
VERTEX
  8
0
 10
527.517739
 20
763.559067
 42
-0.076075
  0
VERTEX
  8
0
 10
531.499964
 20
753.534756
 42
-0.052298
  0
VERTEX
  8
0
 10
532.988135
 20
741.375161
 42
-0.050502
  0
VERTEX
  8
0
 10
531.922844
 20
728.667885
 42
-0.057440
  0
VERTEX
  8
0
 10
528.322367
 20
717.000000
 42
-0.023914
  0
VERTEX
  8
0
 10
525.480801
 20
711.291701
 42
-0.040725
  0
VERTEX
  8
0
 10
522.512357
 20
706.868840
 42
-0.040859
  0
VERTEX
  8
0
 10
518.873458
 20
702.995383
 42
-0.024257
  0
VERTEX
  8
0
 10
513.970828
 20
698.978374
 42
0.057426
  0
VERTEX
  8
0
 10
505.939978
 20
691.456923
 42
0.067050
  0
VERTEX
  8
0
 10
500.309590
 20
682.663326
 42
0.072621
  0
VERTEX
  8
0
 10
497.519213
 20
673.333892
 42
0.088327
  0
VERTEX
  8
0
 10
497.797522
 20
664.229421
 42
0.052386
  0
VERTEX
  8
0
 10
499.806062
 20
657.989914
 42
0.009901
  0
VERTEX
  8
0
 10
504.864311
 20
647.130483
 42
0.010546
  0
VERTEX
  8
0
 10
511.282004
 20
634.706395
 42
0.009818
  0
VERTEX
  8
0
 10
518.367187
 20
622.260619
 42
0.003542
  0
VERTEX
  8
0
 10
522.502452
 20
615.427930
 42
0.041196
  0
VERTEX
  8
0
 10
524.350772
 20
612.912387
 42
0.146810
  0
VERTEX
  8
0
 10
525.691764
 20
612.065591
 42
0.209227
  0
VERTEX
  8
0
 10
527.067706
 20
612.260619
 42
0.136963
  0
VERTEX
  8
0
 10
529.073135
 20
614.433877
 42
0.170247
  0
VERTEX
  8
0
 10
529.443084
 20
617.142064
 42
0.073359
  0
VERTEX
  8
0
 10
527.961037
 20
621.228107
 42
0.011489
  0
VERTEX
  8
0
 10
523.710110
 20
628.697754
 42
-0.023438
  0
VERTEX
  8
0
 10
509.896873
 20
654.378502
 42
-0.101151
  0
VERTEX
  8
0
 10
505.714215
 20
671.106996
 42
-0.156603
  0
VERTEX
  8
0
 10
509.290936
 20
684.168233
 42
-0.083326
  0
VERTEX
  8
0
 10
520.760795
 20
696.623375
 42
0.032139
  0
VERTEX
  8
0
 10
525.826890
 20
701.107595
 42
0.036334
  0
VERTEX
  8
0
 10
530.056284
 20
706.034597
 42
0.036691
  0
VERTEX
  8
0
 10
533.494161
 20
711.477233
 42
0.034028
  0
VERTEX
  8
0
 10
536.198181
 20
717.500000
 42
0.025999
  0
VERTEX
  8
0
 10
537.331099
 20
721.136926
 42
0.031395
  0
VERTEX
  8
0
 10
537.996753
 20
724.650737
 42
0.023133
  0
VERTEX
  8
0
 10
538.336556
 20
728.987559
 42
0.007263
  0
VERTEX
  8
0
 10
538.449943
 20
735.500000
 42
0.021303
  0
VERTEX
  8
0
 10
538.075780
 20
744.916039
 42
0.050594
  0
VERTEX
  8
0
 10
536.798689
 20
751.800570
 42
0.051989
  0
VERTEX
  8
0
 10
534.189864
 20
758.176150
 42
0.023609
  0
VERTEX
  8
0
 10
529.553799
 20
765.919075
 42
0.060739
  0
VERTEX
  8
0
 10
517.616845
 20
779.862114
 42
0.054808
  0
VERTEX
  8
0
 10
502.284288
 20
791.086517
 42
0.051891
  0
VERTEX
  8
0
 10
484.051488
 20
799.200975
 42
0.044238
  0
VERTEX
  8
0
 10
463.533125
 20
803.932110
 42
0.023500
  0
VERTEX
  8
0
 10
455.890691
 20
804.631111
 42
0.011052
  0
VERTEX
  8
0
 10
445.972334
 20
804.850485
 42
0.010847
  0
VERTEX
  8
0
 10
436.267054
 20
804.640024
 42
0.030570
  0
SEQEND
  0
POLYLINE
  8
0
 66
1
 70
1
  0
VERTEX
  8
0
 10
459.500000
 20
797.463885
 42
-0.049242
  0
VERTEX
  8
0
 10
457.951949
 20
796.931919
 42
-0.018107
  0
VERTEX
  8
0
 10
455.682753
 20
796.480476
 42
-0.017744
  0
VERTEX
  8
0
 10
453.151656
 20
796.163238
 42
-0.020353
  0
VERTEX
  8
0
 10
450.717881
 20
796.045104
 42
0.034502
  0
VERTEX
  8
0
 10
445.881275
 20
795.673036
 42
0.056012
  0
VERTEX
  8
0
 10
441.899946
 20
794.623888
 42
0.064535
  0
VERTEX
  8
0
 10
438.666704
 20
792.864028
 42
0.068968
  0
VERTEX
  8
0
 10
436.070377
 20
790.371180
 42
0.110078
  0
VERTEX
  8
0
 10
434.527275
 20
787.166387
 42
0.083652
  0
VERTEX
  8
0
 10
434.282868
 20
783.263877
 42
0.061100
  0
VERTEX
  8
0
 10
435.391830
 20
778.449999
 42
0.027257
  0
VERTEX
  8
0
 10
437.946986
 20
772.456122
 42
-0.023235
  0
VERTEX
  8
0
 10
439.934472
 20
767.895867
 42
-0.092838
  0
VERTEX
  8
0
 10
440.475904
 20
764.910297
 42
-0.111364
  0
VERTEX
  8
0
 10
439.853328
 20
762.221786
 42
-0.041039
  0
VERTEX
  8
0
 10
437.868804
 20
758.845630
 42
0.057218
  0
VERTEX
  8
0
 10
436.726256
 20
756.749862
 42
0.055737
  0
VERTEX
  8
0
 10
436.075900
 20
754.431183
 42
0.073846
  0
VERTEX
  8
0
 10
436.049232
 20
752.614169
 42
0.377475
  0
VERTEX
  8
0
 10
436.750000
 20
752.004281
 42
0.122231
  0
VERTEX
  8
0
 10
437.227204
 20
752.125604
 42
0.006578
  0
VERTEX
  8
0
 10
438.601562
 20
752.886040
 42
0.009962
  0
VERTEX
  8
0
 10
440.221528
 20
753.853695
 42
0.007077
  0
VERTEX
  8
0
 10
442.000000
 20
755.000000
 42
-0.019202
  0
VERTEX
  8
0
 10
446.216886
 20
757.575455
 42
-0.233372
  0
VERTEX
  8
0
 10
448.055540
 20
757.669949
 42
-0.185875
  0
VERTEX
  8
0
 10
449.489261
 20
756.266455
 42
-0.011757
  0
VERTEX
  8
0
 10
451.854049
 20
750.750000
 42
0.103388
  0
VERTEX
  8
0
 10
453.367558
 20
748.477329
 42
0.259982
  0
VERTEX
  8
0
 10
455.221951
 20
747.967033
 42
0.179012
  0
VERTEX
  8
0
 10
457.196113
 20
749.301573
 42
0.054335
  0
VERTEX
  8
0
 10
459.000000
 20
752.500000
 42
-0.011099
  0
VERTEX
  8
0
 10
459.784990
 20
754.224562
 42
-0.017013
  0
VERTEX
  8
0
 10
460.547979
 20
755.678125
 42
-0.011630
  0
VERTEX
  8
0
 10
461.233119
 20
756.819404
 42
-0.257174
  0
VERTEX
  8
0
 10
461.561013
 20
757.000000
 42
-0.160613
  0
VERTEX
  8
0
 10
461.964336
 20
756.867011
 42
-0.005223
  0
VERTEX
  8
0
 10
463.342295
 20
755.825000
 42
-0.009540
  0
VERTEX
  8
0
 10
464.950215
 20
754.532745
 42
-0.006432
  0
VERTEX
  8
0
 10
466.737340
 20
753.000000
 42
0.013339
  0
VERTEX
  8
0
 10
469.859813
 20
750.395966
 42
0.065967
  0
VERTEX
  8
0
 10
471.822966
 20
749.228006
 42
0.377562
  0
VERTEX
  8
0
 10
472.569736
 20
749.473062
 42
0.228373
  0
VERTEX
  8
0
 10
472.651879
 20
750.464807
 42
-0.052090
  0
VERTEX
  8
0
 10
472.397419
 20
751.412484
 42
-0.005256
  0
VERTEX
  8
0
 10
472.053070
 20
753.726560
 42
-0.006544
  0
VERTEX
  8
0
 10
471.706914
 20
756.501071
 42
-0.005166
  0
VERTEX
  8
0
 10
471.402710
 20
759.511684
 42
-0.007686
  0
VERTEX
  8
0
 10
471.050867
 20
764.194185
 42
-0.059065
  0
VERTEX
  8
0
 10
471.179097
 20
766.388693
 42
-0.101144
  0
VERTEX
  8
0
 10
471.810789
 20
767.979656
 42
-0.042723
  0
VERTEX
  8
0
 10
473.235634
 20
769.796878
 42
0.031171
  0
VERTEX
  8
0
 10
475.613803
 20
772.689923
 42
0.062454
  0
VERTEX
  8
0
 10
477.032554
 20
775.280992
 42
0.062632
  0
VERTEX
  8
0
 10
477.765278
 20
778.137251
 42
0.031515
  0
VERTEX
  8
0
 10
478.000000
 20
781.857533
 42
0.068864
  0
VERTEX
  8
0
 10
477.419558
 20
786.051965
 42
0.087930
  0
VERTEX
  8
0
 10
475.723499
 20
789.559229
 42
0.089139
  0
VERTEX
  8
0
 10
472.947357
 20
792.235858
 42
0.072905
  0
VERTEX
  8
0
 10
469.217274
 20
794.009204
 42
-0.000374
  0
VERTEX
  8
0
 10
467.694186
 20
794.478657
 42
-0.000389
  0
VERTEX
  8
0
 10
466.191678
 20
794.944281
 42
-0.000374
  0
VERTEX
  8
0
 10
464.892737
 20
795.348994
 42
-0.001702
  0
VERTEX
  8
0
 10
464.137376
 20
795.587789
 42
-0.061508
  0
VERTEX
  8
0
 10
463.507402
 20
795.878583
 42
-0.241878
  0
VERTEX
  8
0
 10
463.293956
 20
796.233989
 42
-0.164030
  0
VERTEX
  8
0
 10
463.422988
 20
796.721061
 42
-0.027156
  0
VERTEX
  8
0
 10
464.009821
 20
797.511833
 42
0.157843
  0
VERTEX
  8
0
 10
464.392191
 20
798.470214
 42
0.436996
  0
VERTEX
  8
0
 10
463.948882
 20
798.939018
 42
0.087629
  0
VERTEX
  8
0
 10
462.295748
 20
798.628894
 42
0.017288
  0
SEQEND
  0
POLYLINE
  8
0
 66
1
 70
1
  0
VERTEX
  8
0
 10
485.582498
 20
788.131685
 42
0.032814
  0
VERTEX
  8
0
 10
484.437254
 20
787.803817
 42
0.038591
  0
VERTEX
  8
0
 10
483.407784
 20
787.342136
 42
0.042266
  0
VERTEX
  8
0
 10
482.622218
 20
786.823857
 42
0.146537
  0
VERTEX
  8
0
 10
482.276133
 20
786.330905
 42
0.311166
  0
VERTEX
  8
0
 10
482.402450
 20
785.895286
 42
0.181614
  0
VERTEX
  8
0
 10
482.939803
 20
785.713678
 42
0.054243
  0
VERTEX
  8
0
 10
484.124678
 20
785.882799
 42
0.010545
  0
VERTEX
  8
0
 10
486.208402
 20
786.462279
 42
-0.001776
  0
VERTEX
  8
0
 10
488.008372
 20
786.997026
 42
-0.001686
  0
VERTEX
  8
0
 10
489.843363
 20
787.528381
 42
-0.001672
  0
VERTEX
  8
0
 10
491.469263
 20
787.987376
 42
-0.005957
  0
VERTEX
  8
0
 10
492.514767
 20
788.265373
 42
0.727282
  0
VERTEX
  8
0
 10
492.535155
 20
788.577536
 42
0.099753
  0
VERTEX
  8
0
 10
491.488019
 20
788.767612
 42
0.020887
  0
VERTEX
  8
0
 10
488.381673
 20
788.577733
 42
0.027609
  0
SEQEND
  0
POLYLINE
  8
0
 66
1
 70
1
  0
VERTEX
  8
0
 10
513.000000
 20
770.010433
 42
-0.174982
  0
VERTEX
  8
0
 10
512.829286
 20
769.537564
 42
-0.050193
  0
VERTEX
  8
0
 10
512.265625
 20
768.982645
 42
-0.043924
  0
VERTEX
  8
0
 10
511.456923
 20
768.441774
 42
-0.034607
  0
VERTEX
  8
0
 10
510.500000
 20
768.000000
 42
0.049595
  0
VERTEX
  8
0
 10
509.543720
 20
767.523315
 42
0.054776
  0
VERTEX
  8
0
 10
508.734375
 20
766.880815
 42
0.062060
  0
VERTEX
  8
0
 10
508.181650
 20
766.177987
 42
0.136450
  0
VERTEX
  8
0
 10
508.000000
 20
765.524751
 42
-0.201789
  0
VERTEX
  8
0
 10
507.693465
 20
764.796134
 42
-0.124463
  0
VERTEX
  8
0
 10
506.877421
 20
764.321627
 42
-0.057232
  0
VERTEX
  8
0
 10
505.346560
 20
764.067199
 42
-0.012589
  0
VERTEX
  8
0
 10
502.678139
 20
764.000000
 42
0.043040
  0
VERTEX
  8
0
 10
497.346928
 20
763.540243
 42
0.046149
  0
VERTEX
  8
0
 10
492.301248
 20
762.174806
 42
0.047747
  0
VERTEX
  8
0
 10
487.748031
 20
759.964448
 42
0.053318
  0
VERTEX
  8
0
 10
483.877113
 20
756.997881
 42
0.000000
  0
VERTEX
  8
0
 10
479.930943
 20
753.243980
 42
0.000000
  0
VERTEX
  8
0
 10
483.111774
 20
748.127095
 42
-0.048364
  0
VERTEX
  8
0
 10
485.450744
 20
743.400518
 42
-0.055208
  0
VERTEX
  8
0
 10
486.711169
 20
738.516640
 42
-0.060794
  0
VERTEX
  8
0
 10
486.806662
 20
733.931862
 42
-0.090780
  0
VERTEX
  8
0
 10
485.695155
 20
730.090742
 42
0.013160
  0
VERTEX
  8
0
 10
485.142078
 20
728.904943
 42
0.024119
  0
VERTEX
  8
0
 10
484.764655
 20
727.907906
 42
0.024437
  0
VERTEX
  8
0
 10
484.562390
 20
727.161949
 42
0.478965
  0
VERTEX
  8
0
 10
484.692668
 20
727.000000
 42
0.143293
  0
VERTEX
  8
0
 10
485.051889
 20
727.105106
 42
0.003591
  0
VERTEX
  8
0
 10
486.494323
 20
728.042904
 42
0.007429
  0
VERTEX
  8
0
 10
488.176075
 20
729.189806
 42
0.004962
  0
VERTEX
  8
0
 10
490.068539
 20
730.550312
 42
0.000000
  0
VERTEX
  8
0
 10
494.905033
 20
734.100625
 42
0.000000
  0
VERTEX
  8
0
 10
497.606568
 20
730.018330
 42
0.025599
  0
VERTEX
  8
0
 10
499.704269
 20
727.176005
 42
0.212052
  0
VERTEX
  8
0
 10
501.103593
 20
726.472394
 42
0.287020
  0
VERTEX
  8
0
 10
502.281417
 20
727.132804
 42
0.042648
  0
VERTEX
  8
0
 10
503.431106
 20
729.738599
 42
-0.026987
  0
VERTEX
  8
0
 10
504.637529
 20
732.722367
 42
-0.248219
  0
VERTEX
  8
0
 10
505.716368
 20
733.535718
 42
-0.227918
  0
VERTEX
  8
0
 10
507.062288
 20
733.135861
 42
-0.023050
  0
VERTEX
  8
0
 10
509.495939
 20
730.713589
 42
0.020739
  0
VERTEX
  8
0
 10
510.911234
 20
729.291838
 42
0.025405
  0
VERTEX
  8
0
 10
512.350452
 20
728.090867
 42
0.025222
  0
VERTEX
  8
0
 10
513.634262
 20
727.223507
 42
0.136778
  0
VERTEX
  8
0
 10
514.436020
 20
727.000000
 42
0.184579
  0
VERTEX
  8
0
 10
515.079944
 20
727.246094
 42
0.249682
  0
VERTEX
  8
0
 10
515.290560
 20
727.820688
 42
0.070242
  0
VERTEX
  8
0
 10
514.956238
 20
728.990937
 42
0.008432
  0
VERTEX
  8
0
 10
513.820258
 20
731.433063
 42
0.000000
  0
VERTEX
  8
0
 10
511.666510
 20
735.866126
 42
0.000000
  0
VERTEX
  8
0
 10
514.833255
 20
743.410245
 42
0.018841
  0
VERTEX
  8
0
 10
517.366168
 20
750.144620
 42
0.102523
  0
VERTEX
  8
0
 10
517.821534
 20
753.994273
 42
0.133154
  0
VERTEX
  8
0
 10
516.644435
 20
757.205567
 42
0.040455
  0
VERTEX
  8
0
 10
513.287592
 20
761.215651
 42
0.000000
  0
VERTEX
  8
0
 10
508.575184
 20
766.000000
 42
0.000000
  0
VERTEX
  8
0
 10
514.537592
 20
766.031803
 42
0.003829
  0
VERTEX
  8
0
 10
518.274532
 20
766.080355
 42
0.089566
  0
VERTEX
  8
0
 10
519.309297
 20
766.289363
 42
0.513480
  0
VERTEX
  8
0
 10
519.418867
 20
766.729305
 42
0.052423
  0
VERTEX
  8
0
 10
518.500000
 20
767.605078
 42
0.014990
  0
VERTEX
  8
0
 10
516.159268
 20
769.299807
 42
0.046136
  0
VERTEX
  8
0
 10
514.449234
 20
770.243975
 42
0.111091
  0
VERTEX
  8
0
 10
513.419704
 20
770.443040
 42
0.405373
  0
SEQEND
  0
POLYLINE
  8
0
 66
1
 70
1
  0
VERTEX
  8
0
 10
574.078723
 20
750.249147
 42
0.041025
  0
VERTEX
  8
0
 10
573.558486
 20
748.135447
 42
0.009055
  0
VERTEX
  8
0
 10
573.032639
 20
744.436519
 42
0.009358
  0
VERTEX
  8
0
 10
572.581004
 20
740.125892
 42
0.008885
  0
VERTEX
  8
0
 10
572.281774
 20
735.726238
 42
0.024873
  0
VERTEX
  8
0
 10
572.278119
 20
726.667544
 42
0.037178
  0
VERTEX
  8
0
 10
573.254116
 20
718.814785
 42
0.037850
  0
VERTEX
  8
0
 10
575.364079
 20
711.297462
 42
0.027088
  0
VERTEX
  8
0
 10
578.794052
 20
703.262570
 42
-0.011039
  0
VERTEX
  8
0
 10
580.108803
 20
700.437310
 42
-0.017187
  0
VERTEX
  8
0
 10
581.102699
 20
697.942409
 42
-0.011605
  0
VERTEX
  8
0
 10
581.788937
 20
695.882121
 42
-0.277757
  0
VERTEX
  8
0
 10
581.647919
 20
695.314585
 42
-0.318892
  0
VERTEX
  8
0
 10
580.348375
 20
695.094179
 42
-0.010415
  0
VERTEX
  8
0
 10
575.376663
 20
697.621019
 42
-0.018498
  0
VERTEX
  8
0
 10
569.979870
 20
700.768920
 42
-0.019927
  0
VERTEX
  8
0
 10
564.966756
 20
704.234646
 42
0.011107
  0
VERTEX
  8
0
 10
563.060625
 20
705.602718
 42
0.021099
  0
VERTEX
  8
0
 10
561.458984
 20
706.602666
 42
0.021572
  0
VERTEX
  8
0
 10
560.257797
 20
707.217044
 42
0.546447
  0
VERTEX
  8
0
 10
560.000000
 20
707.051596
 42
0.220716
  0
VERTEX
  8
0
 10
560.596957
 20
705.765154
 42
0.008598
  0
VERTEX
  8
0
 10
564.748356
 20
702.375895
 42
0.011945
  0
VERTEX
  8
0
 10
570.492309
 20
698.067169
 42
0.004864
  0
VERTEX
  8
0
 10
578.500000
 20
692.470806
 42
-0.022779
  0
VERTEX
  8
0
 10
586.128274
 20
686.722261
 42
-0.013055
  0
VERTEX
  8
0
 10
594.812565
 20
679.144669
 42
-0.006195
  0
VERTEX
  8
0
 10
602.965711
 20
671.458171
 42
-0.203350
  0
VERTEX
  8
0
 10
604.000000
 20
669.020213
 42
-0.293726
  0
VERTEX
  8
0
 10
603.747646
 20
668.627701
 42
-0.073849
  0
VERTEX
  8
0
 10
602.981567
 20
668.406914
 42
-0.047665
  0
VERTEX
  8
0
 10
601.797481
 20
668.362001
 42
-0.021519
  0
VERTEX
  8
0
 10
600.250000
 20
668.517854
 42
0.001161
  0
VERTEX
  8
0
 10
587.448520
 20
670.336027
 42
0.002607
  0
VERTEX
  8
0
 10
577.724458
 20
671.642436
 42
0.000415
  0
VERTEX
  8
0
 10
569.640413
 20
672.678799
 42
0.232053
  0
VERTEX
  8
0
 10
569.192292
 20
672.525625
 42
0.584988
  0
VERTEX
  8
0
 10
569.300531
 20
672.139371
 42
0.000325
  0
VERTEX
  8
0
 10
583.719378
 20
668.636639
 42
0.002447
  0
VERTEX
  8
0
 10
596.623479
 20
665.577565
 42
0.018808
  0
VERTEX
  8
0
 10
602.729666
 20
664.401589
 42
-0.043063
  0
VERTEX
  8
0
 10
605.040080
 20
663.839329
 42
-0.057558
  0
VERTEX
  8
0
 10
606.991154
 20
662.921323
 42
-0.047108
  0
VERTEX
  8
0
 10
608.951886
 20
661.434113
 42
-0.018929
  0
VERTEX
  8
0
 10
611.343843
 20
659.063491
 42
-0.008919
  0
VERTEX
  8
0
 10
613.108272
 20
657.108407
 42
-0.009183
  0
VERTEX
  8
0
 10
614.784386
 20
655.110279
 42
-0.008965
  0
VERTEX
  8
0
 10
616.173236
 20
653.326973
 42
-0.038107
  0
VERTEX
  8
0
 10
616.899360
 20
652.188048
 42
-0.064830
  0
VERTEX
  8
0
 10
617.387318
 20
650.899181
 42
-0.364545
  0
VERTEX
  8
0
 10
617.080382
 20
650.289976
 42
-0.096861
  0
VERTEX
  8
0
 10
615.898168
 20
650.035741
 42
-0.004515
  0
VERTEX
  8
0
 10
611.785184
 20
649.995945
 42
0.006706
  0
VERTEX
  8
0
 10
608.509865
 20
649.949903
 42
0.002015
  0
VERTEX
  8
0
 10
603.527523
 20
649.792917
 42
0.002020
  0
VERTEX
  8
0
 10
597.938090
 20
649.571641
 42
0.002190
  0
VERTEX
  8
0
 10
592.500000
 20
649.310481
 42
0.005587
  0
VERTEX
  8
0
 10
582.315070
 20
648.662439
 42
0.791134
  0
VERTEX
  8
0
 10
582.200342
 20
647.939848
 42
0.092472
  0
VERTEX
  8
0
 10
585.389036
 20
647.276139
 42
0.003337
  0
VERTEX
  8
0
 10
597.883980
 20
647.099680
 42
-0.007772
  0
VERTEX
  8
0
 10
603.295892
 20
646.975234
 42
-0.008759
  0
VERTEX
  8
0
 10
608.489443
 20
646.683826
 42
-0.008136
  0
VERTEX
  8
0
 10
612.890884
 20
646.287333
 42
-0.046279
  0
VERTEX
  8
0
 10
615.193157
 20
645.823983
 42
-0.070506
  0
VERTEX
  8
0
 10
619.237621
 20
643.959915
 42
-0.040474
  0
VERTEX
  8
0
 10
623.508499
 20
640.689124
 42
-0.040552
  0
VERTEX
  8
0
 10
627.177727
 20
636.791894
 42
-0.073533
  0
VERTEX
  8
0
 10
629.376783
 20
633.016346
 42
0.021579
  0
VERTEX
  8
0
 10
630.070727
 20
631.477981
 42
0.030495
  0
VERTEX
  8
0
 10
630.827667
 20
630.179802
 42
0.030870
  0
VERTEX
  8
0
 10
631.547248
 20
629.234369
 42
0.217982
  0
VERTEX
  8
0
 10
632.059291
 20
629.000000
 42
0.423335
  0
VERTEX
  8
0
 10
632.650061
 20
629.609400
 42
0.069278
  0
VERTEX
  8
0
 10
632.341445
 20
631.413999
 42
0.031896
  0
VERTEX
  8
0
 10
631.131418
 20
634.520048
 42
0.007661
  0
VERTEX
  8
0
 10
628.722299
 20
639.500000
 42
-0.019731
  0
VERTEX
  8
0
 10
627.575684
 20
642.023814
 42
-0.019384
  0
VERTEX
  8
0
 10
626.624175
 20
644.644961
 42
-0.019687
  0
VERTEX
  8
0
 10
625.971216
 20
647.003468
 42
-0.066741
  0
VERTEX
  8
0
 10
625.816216
 20
648.589229
 42
-0.062677
  0
VERTEX
  8
0
 10
626.402319
 20
652.197211
 42
-0.011509
  0
VERTEX
  8
0
 10
628.460721
 20
658.639833
 42
-0.013109
  0
VERTEX
  8
0
 10
631.025780
 20
665.486046
 42
-0.020487
  0
VERTEX
  8
0
 10
633.623992
 20
671.216756
 42
0.006245
  0
VERTEX
  8
0
 10
634.533872
 20
673.080596
 42
0.008610
  0
VERTEX
  8
0
 10
635.300949
 20
674.778043
 42
0.005870
  0
VERTEX
  8
0
 10
635.899359
 20
676.211474
 42
0.097433
  0
VERTEX
  8
0
 10
635.996262
 20
676.716756
 42
0.748908
  0
VERTEX
  8
0
 10
635.590231
 20
676.833697
 42
0.008638
  0
VERTEX
  8
0
 10
633.361056
 20
673.184211
 42
0.009675
  0
VERTEX
  8
0
 10
630.437478
 20
667.978473
 42
0.004629
  0
VERTEX
  8
0
 10
626.874532
 20
661.186230
 42
0.000000
  0
VERTEX
  8
0
 10
622.098321
 20
651.872460
 42
0.000000
  0
VERTEX
  8
0
 10
619.646218
 20
656.711453
 42
-0.017679
  0
VERTEX
  8
0
 10
618.548830
 20
659.081266
 42
-0.007818
  0
VERTEX
  8
0
 10
617.260479
 20
662.281949
 42
-0.007726
  0
VERTEX
  8
0
 10
615.999467
 20
665.719493
 42
-0.010314
  0
VERTEX
  8
0
 10
614.967934
 20
668.879662
 42
-0.038782
  0
VERTEX
  8
0
 10
613.547101
 20
675.313152
 42
-0.053512
  0
VERTEX
  8
0
 10
613.352585
 20
681.221098
 42
-0.029886
  0
VERTEX
  8
0
 10
614.426701
 20
689.203021
 42
-0.004676
  0
VERTEX
  8
0
 10
617.629159
 20
704.771464
 42
0.003530
  0
VERTEX
  8
0
 10
619.432590
 20
713.437981
 42
0.015240
  0
VERTEX
  8
0
 10
620.310317
 20
718.625086
 42
0.019285
  0
VERTEX
  8
0
 10
620.643344
 20
721.992261
 42
0.214559
  0
VERTEX
  8
0
 10
620.175883
 20
723.224117
 42
0.204275
  0
VERTEX
  8
0
 10
619.637773
 20
723.440539
 42
0.316521
  0
VERTEX
  8
0
 10
619.250000
 20
723.155605
 42
0.071133
  0
VERTEX
  8
0
 10
619.046492
 20
722.049689
 42
0.009989
  0
VERTEX
  8
0
 10
619.000000
 20
719.722829
 42
-0.038574
  0
VERTEX
  8
0
 10
618.825142
 20
717.459664
 42
-0.016043
  0
VERTEX
  8
0
 10
618.257063
 20
714.445775
 42
-0.015760
  0
VERTEX
  8
0
 10
617.439251
 20
711.241653
 42
-0.019647
  0
VERTEX
  8
0
 10
616.470853
 20
708.326332
 42
0.027773
  0
VERTEX
  8
0
 10
614.287939
 20
701.379572
 42
0.018621
  0
VERTEX
  8
0
 10
612.538075
 20
693.237426
 42
0.018484
  0
VERTEX
  8
0
 10
611.382237
 20
684.883877
 42
0.025137
  0
VERTEX
  8
0
 10
611.000000
 20
677.285676
 42
-0.010385
  0
VERTEX
  8
0
 10
610.941114
 20
674.450931
 42
-0.018398
  0
VERTEX
  8
0
 10
610.758185
 20
672.120376
 42
-0.014089
  0
VERTEX
  8
0
 10
610.502402
 20
670.347637
 42
-0.478152
  0
VERTEX
  8
0
 10
610.176801
 20
670.166667
 42
-0.099211
  0
VERTEX
  8
0
 10
609.639456
 20
670.520656
 42
-0.001850
  0
VERTEX
  8
0
 10
607.235617
 20
672.917746
 42
-0.004458
  0
VERTEX
  8
0
 10
604.458430
 20
675.757909
 42
-0.002958
  0
VERTEX
  8
0
 10
601.320242
 20
679.063959
 42
-0.030619
  0
VERTEX
  8
0
 10
594.430945
 20
687.373570
 42
-0.074366
  0
VERTEX
  8
0
 10
590.744049
 20
694.411704
 42
-0.064682
  0
VERTEX
  8
0
 10
588.999767
 20
702.805121
 42
-0.018931
  0
VERTEX
  8
0
 10
588.500000
 20
716.000000
 42
-0.004557
  0
VERTEX
  8
0
 10
588.552940
 20
721.808283
 42
-0.005477
  0
VERTEX
  8
0
 10
588.712336
 20
727.268750
 42
-0.004724
  0
VERTEX
  8
0
 10
588.940208
 20
731.860572
 42
-0.036174
  0
VERTEX
  8
0
 10
589.222847
 20
734.000000
 42
0.001388
  0
VERTEX
  8
0
 10
589.710501
 20
736.394754
 42
0.195772
  0
VERTEX
  8
0
 10
589.657288
 20
736.673630
 42
0.563848
  0
VERTEX
  8
0
 10
589.501851
 20
736.668774
 42
0.002769
  0
VERTEX
  8
0
 10
588.574521
 20
735.000000
 42
0.085166
  0
VERTEX
  8
0
 10
587.133285
 20
730.816138
 42
0.013045
  0
VERTEX
  8
0
 10
585.937081
 20
722.057374
 42
0.015539
  0
VERTEX
  8
0
 10
585.214434
 20
712.878567
 42
0.035056
  0
VERTEX
  8
0
 10
585.371931
 20
705.908021
 42
-0.006630
  0
VERTEX
  8
0
 10
585.582735
 20
703.259089
 42
-0.011131
  0
VERTEX
  8
0
 10
585.680669
 20
701.029231
 42
-0.004915
  0
VERTEX
  8
0
 10
585.702474
 20
699.181454
 42
-0.414791
  0
VERTEX
  8
0
 10
585.521377
 20
699.000000
 42
-0.286672
  0
VERTEX
  8
0
 10
584.628065
 20
699.558035
 42
-0.004199
  0
VERTEX
  8
0
 10
581.828133
 20
705.419155
 42
-0.011675
  0
VERTEX
  8
0
 10
579.254862
 20
711.276950
 42
-0.025501
  0
VERTEX
  8
0
 10
577.622014
 20
715.899246
 42
-0.027720
  0
VERTEX
  8
0
 10
575.896670
 20
723.164684
 42
-0.022297
  0
VERTEX
  8
0
 10
574.830450
 20
731.125409
 42
-0.022690
  0
VERTEX
  8
0
 10
574.492747
 20
738.940492
 42
-0.034016
  0
VERTEX
  8
0
 10
574.971550
 20
745.750437
 42
0.004755
  0
VERTEX
  8
0
 10
575.349753
 20
748.673043
 42
0.007477
  0
VERTEX
  8
0
 10
575.613109
 20
751.190641
 42
0.002764
  0
VERTEX
  8
0
 10
575.793810
 20
753.343341
 42
0.219322
  0
VERTEX
  8
0
 10
575.679035
 20
753.654299
 42
0.500682
  0
VERTEX
  8
0
 10
575.488480
 20
753.626864
 42
0.015023
  0
VERTEX
  8
0
 10
575.067045
 20
752.795934
 42
0.018646
  0
VERTEX
  8
0
 10
574.585249
 20
751.662852
 42
0.010357
  0
SEQEND
  0
POLYLINE
  8
0
 66
1
 70
1
  0
VERTEX
  8
0
 10
591.340988
 20
746.500000
 42
0.006701
  0
VERTEX
  8
0
 10
590.930671
 20
744.172315
 42
0.010328
  0
VERTEX
  8
0
 10
590.644565
 20
742.148323
 42
0.005059
  0
VERTEX
  8
0
 10
590.457058
 20
740.445177
 42
0.219131
  0
VERTEX
  8
0
 10
590.572127
 20
740.111312
 42
0.553265
  0
VERTEX
  8
0
 10
591.271946
 20
740.255540
 42
0.027722
  0
VERTEX
  8
0
 10
592.113756
 20
742.963213
 42
0.029425
  0
VERTEX
  8
0
 10
592.732823
 20
746.232174
 42
0.053727
  0
VERTEX
  8
0
 10
592.789710
 20
748.943527
 42
0.011324
  0
VERTEX
  8
0
 10
592.578040
 20
750.877414
 42
0.711932
  0
VERTEX
  8
0
 10
592.344521
 20
750.925176
 42
0.084928
  0
VERTEX
  8
0
 10
592.054083
 20
750.166748
 42
0.002096
  0
SEQEND
  0
POLYLINE
  8
0
 66
1
 70
1
  0
VERTEX
  8
0
 10
446.093316
 20
742.837842
 42
0.015557
  0
VERTEX
  8
0
 10
445.702824
 20
741.594529
 42
0.022685
  0
VERTEX
  8
0
 10
445.443449
 20
740.475912
 42
0.019491
  0
VERTEX
  8
0
 10
445.312170
 20
739.567411
 42
0.226227
  0
VERTEX
  8
0
 10
445.428960
 20
739.237707
 42
0.294288
  0
VERTEX
  8
0
 10
446.176106
 20
739.076128
 42
0.118870
  0
VERTEX
  8
0
 10
447.078666
 20
739.688403
 42
0.067212
  0
VERTEX
  8
0
 10
448.023295
 20
741.057738
 42
0.033569
  0
VERTEX
  8
0
 10
448.849515
 20
742.998162
 42
0.015784
  0
VERTEX
  8
0
 10
449.334963
 20
744.546268
 42
0.093554
  0
VERTEX
  8
0
 10
449.407299
 20
745.387932
 42
0.229211
  0
VERTEX
  8
0
 10
449.137103
 20
745.827185
 42
0.143138
  0
VERTEX
  8
0
 10
448.545806
 20
746.000000
 42
0.177158
  0
VERTEX
  8
0
 10
447.950544
 20
745.782256
 42
0.052491
  0
VERTEX
  8
0
 10
447.268448
 20
745.071116
 42
0.045480
  0
VERTEX
  8
0
 10
446.614564
 20
744.048202
 42
0.035626
  0
SEQEND
  0
POLYLINE
  8
0
 66
1
 70
1
  0
VERTEX
  8
0
 10
443.500000
 20
736.360355
 42
0.016110
  0
VERTEX
  8
0
 10
439.476814
 20
735.234744
 42
0.035545
  0
VERTEX
  8
0
 10
436.510989
 20
734.063602
 42
0.043555
  0
VERTEX
  8
0
 10
434.141112
 20
732.661651
 42
0.041059
  0
VERTEX
  8
0
 10
431.999061
 20
730.845215
 42
0.088576
  0
VERTEX
  8
0
 10
429.731001
 20
727.591173
 42
0.117382
  0
VERTEX
  8
0
 10
429.022117
 20
724.063779
 42
0.086207
  0
VERTEX
  8
0
 10
429.921412
 20
719.789222
 42
0.030820
  0
VERTEX
  8
0
 10
432.590384
 20
714.134189
 42
-0.006877
  0
VERTEX
  8
0
 10
434.854564
 20
709.877357
 42
-0.070733
  0
VERTEX
  8
0
 10
435.505660
 20
708.000096
 42
-0.123502
  0
VERTEX
  8
0
 10
435.421810
 20
706.423607
 42
-0.036535
  0
VERTEX
  8
0
 10
434.536761
 20
704.154767
 42
0.047119
  0
VERTEX
  8
0
 10
433.478034
 20
701.261582
 42
0.257571
  0
VERTEX
  8
0
 10
433.871759
 20
699.703712
 42
0.272948
  0
VERTEX
  8
0
 10
435.365943
 20
699.264090
 42
0.051108
  0
VERTEX
  8
0
 10
438.158938
 20
700.280113
 42
-0.032923
  0
VERTEX
  8
0
 10
440.683232
 20
701.303595
 42
-0.192697
  0
VERTEX
  8
0
 10
442.084836
 20
701.217496
 42
-0.148069
  0
VERTEX
  8
0
 10
443.248818
 20
700.163015
 42
-0.017245
  0
VERTEX
  8
0
 10
444.971693
 20
697.055486
 42
0.034730
  0
VERTEX
  8
0
 10
446.965870
 20
693.737558
 42
0.207503
  0
VERTEX
  8
0
 10
448.646326
 20
692.704977
 42
0.253432
  0
VERTEX
  8
0
 10
450.317786
 20
693.323879
 42
0.050013
  0
VERTEX
  8
0
 10
452.240337
 20
696.017908
 42
-0.029647
  0
VERTEX
  8
0
 10
454.011140
 20
698.725728
 42
-0.088299
  0
VERTEX
  8
0
 10
455.617167
 20
700.240680
 42
-0.162320
  0
VERTEX
  8
0
 10
457.062516
 20
700.622468
 42
-0.182438
  0
VERTEX
  8
0
 10
458.367217
 20
700.032783
 42
0.071887
  0
VERTEX
  8
0
 10
458.896936
 20
699.636842
 42
0.038786
  0
VERTEX
  8
0
 10
459.642027
 20
699.303380
 42
0.037667
  0
VERTEX
  8
0
 10
460.470041
 20
699.076022
 42
0.048207
  0
VERTEX
  8
0
 10
461.256704
 20
699.000000
 42
0.030210
  0
VERTEX
  8
0
 10
462.312237
 20
699.063834
 42
0.341358
  0
VERTEX
  8
0
 10
462.591763
 20
699.339648
 42
0.178232
  0
VERTEX
  8
0
 10
462.478580
 20
699.849167
 42
0.009917
  0
VERTEX
  8
0
 10
461.556704
 20
701.222506
 42
-0.063983
  0
VERTEX
  8
0
 10
460.960316
 20
702.359108
 42
-0.028667
  0
VERTEX
  8
0
 10
460.463733
 20
703.975228
 42
-0.027802
  0
VERTEX
  8
0
 10
460.127949
 20
705.767488
 42
-0.033780
  0
VERTEX
  8
0
 10
460.021962
 20
707.472506
 42
-0.058593
  0
VERTEX
  8
0
 10
460.443590
 20
710.896968
 42
-0.030027
  0
VERTEX
  8
0
 10
461.722404
 20
715.036964
 42
-0.027466
  0
VERTEX
  8
0
 10
463.365487
 20
718.770811
 42
-0.137801
  0
VERTEX
  8
0
 10
464.895873
 20
720.435646
 42
0.276296
  0
VERTEX
  8
0
 10
466.156627
 20
722.868720
 42
0.080617
  0
VERTEX
  8
0
 10
465.189435
 20
727.154677
 42
0.069914
  0
VERTEX
  8
0
 10
462.654505
 20
731.557140
 42
0.108299
  0
VERTEX
  8
0
 10
459.293182
 20
734.348390
 42
0.067478
  0
VERTEX
  8
0
 10
456.272830
 20
735.425294
 42
0.020261
  0
VERTEX
  8
0
 10
451.448752
 20
736.239622
 42
0.020056
  0
VERTEX
  8
0
 10
446.591693
 20
736.661329
 42
0.071896
  0
SEQEND
  0
POLYLINE
  8
0
 66
1
 70
1
  0
VERTEX
  8
0
 10
553.680853
 20
714.173116
 42
0.023585
  0
VERTEX
  8
0
 10
555.100103
 20
711.845464
 42
0.041113
  0
VERTEX
  8
0
 10
556.515167
 20
710.084397
 42
0.054925
  0
VERTEX
  8
0
 10
557.727053
 20
709.059509
 42
0.358709
  0
VERTEX
  8
0
 10
558.464259
 20
709.130926
 42
0.352310
  0
VERTEX
  8
0
 10
558.498285
 20
709.444942
 42
0.011008
  0
VERTEX
  8
0
 10
557.727168
 20
710.592793
 42
0.016992
  0
VERTEX
  8
0
 10
556.686369
 20
711.968919
 42
0.010384
  0
VERTEX
  8
0
 10
555.370947
 20
713.523426
 42
0.000847
  0
VERTEX
  8
0
 10
552.920332
 20
716.290929
 42
0.119910
  0
VERTEX
  8
0
 10
552.563556
 20
716.537997
 42
0.694731
  0
VERTEX
  8
0
 10
552.463482
 20
716.424682
 42
0.002363
  0
SEQEND
  0
POLYLINE
  8
0
 66
1
 70
1
  0
VERTEX
  8
0
 10
575.767909
 20
625.275269
 42
0.018638
  0
VERTEX
  8
0
 10
577.218327
 20
625.150328
 42
0.012590
  0
VERTEX
  8
0
 10
578.878422
 20
625.111345
 42
0.012695
  0
VERTEX
  8
0
 10
580.487453
 20
625.154945
 42
0.024559
  0
VERTEX
  8
0
 10
581.767909
 20
625.285474
 42
0.212532
  0
VERTEX
  8
0
 10
582.000181
 20
625.434198
 42
0.556092
  0
VERTEX
  8
0
 10
581.934948
 20
625.575472
 42
0.025342
  0
VERTEX
  8
0
 10
580.655786
 20
625.668409
 42
0.005888
  0
VERTEX
  8
0
 10
578.500000
 20
625.690131
 42
0.005499
  0
VERTEX
  8
0
 10
576.352754
 20
625.662864
 42
0.031761
  0
VERTEX
  8
0
 10
575.222448
 20
625.564056
 42
0.756877
  0
VERTEX
  8
0
 10
575.205163
 20
625.425738
 42
0.069146
  0
SEQEND
  0
POLYLINE
  8
0
 66
1
 70
1
  0
VERTEX
  8
0
 10
581.000000
 20
573.833333
 42
0.004577
  0
VERTEX
  8
0
 10
581.030788
 20
570.470197
 42
0.502833
  0
VERTEX
  8
0
 10
581.347318
 20
570.243905
 42
0.279890
  0
VERTEX
  8
0
 10
581.715658
 20
570.669141
 42
0.003727
  0
VERTEX
  8
0
 10
582.295588
 20
574.250000
 42
0.022821
  0
VERTEX
  8
0
 10
582.451465
 20
575.694828
 42
0.039304
  0
VERTEX
  8
0
 10
582.431232
 20
576.903978
 42
0.049411
  0
VERTEX
  8
0
 10
582.263503
 20
577.757503
 42
0.330839
  0
VERTEX
  8
0
 10
581.937129
 20
578.000000
 42
0.309087
  0
VERTEX
  8
0
 10
581.573180
 20
577.751252
 42
0.037637
  0
VERTEX
  8
0
 10
581.275282
 20
576.776042
 42
0.034122
  0
VERTEX
  8
0
 10
581.067747
 20
575.430314
 42
0.021202
  0
SEQEND
  0
POLYLINE
  8
0
 66
1
 70
1
  0
VERTEX
  8
0
 10
574.750000
 20
551.785039
 42
0.049994
  0
VERTEX
  8
0
 10
573.686122
 20
551.293151
 42
0.058060
  0
VERTEX
  8
0
 10
572.798195
 20
550.619583
 42
0.066789
  0
VERTEX
  8
0
 10
572.199649
 20
549.867885
 42
0.135591
  0
VERTEX
  8
0
 10
572.000000
 20
549.145201
 42
0.155932
  0
VERTEX
  8
0
 10
573.300471
 20
545.076587
 42
0.013023
  0
VERTEX
  8
0
 10
580.033718
 20
536.122968
 42
0.011120
  0
VERTEX
  8
0
 10
587.266646
 20
527.414026
 42
0.217192
  0
VERTEX
  8
0
 10
590.368330
 20
526.000000
 42
0.226888
  0
VERTEX
  8
0
 10
592.382327
 20
526.963501
 42
0.097655
  0
VERTEX
  8
0
 10
593.801637
 20
529.665535
 42
0.098417
  0
VERTEX
  8
0
 10
594.082817
 20
532.687834
 42
0.232506
  0
VERTEX
  8
0
 10
592.911558
 20
534.554660
 42
-0.081006
  0
VERTEX
  8
0
 10
592.254540
 20
535.125393
 42
-0.003748
  0
VERTEX
  8
0
 10
590.374709
 20
537.419796
 42
-0.006136
  0
VERTEX
  8
0
 10
588.189027
 20
540.197748
 42
-0.004358
  0
VERTEX
  8
0
 10
585.803927
 20
543.363677
 42
0.005053
  0
VERTEX
  8
0
 10
583.414902
 20
546.525660
 42
0.007122
  0
VERTEX
  8
0
 10
581.217304
 20
549.291602
 42
0.004412
  0
VERTEX
  8
0
 10
579.323367
 20
551.565613
 42
0.093110
  0
VERTEX
  8
0
 10
578.642369
 20
552.118372
 42
0.112030
  0
VERTEX
  8
0
 10
578.018216
 20
552.293139
 42
0.033841
  0
VERTEX
  8
0
 10
577.027758
 20
552.275534
 42
0.032028
  0
VERTEX
  8
0
 10
575.886635
 20
552.103697
 42
0.029928
  0
SEQEND
  0
POLYLINE
  8
0
 66
1
 70
1
  0
VERTEX
  8
0
 10
687.000000
 20
517.194280
 42
0.122669
  0
VERTEX
  8
0
 10
687.118975
 20
516.716637
 42
0.011671
  0
VERTEX
  8
0
 10
687.712447
 20
515.659572
 42
0.014349
  0
VERTEX
  8
0
 10
688.496470
 20
514.419028
 42
0.010830
  0
VERTEX
  8
0
 10
689.425352
 20
513.101180
 42
-0.049231
  0
VERTEX
  8
0
 10
690.514359
 20
511.273055
 42
-0.024292
  0
VERTEX
  8
0
 10
691.544201
 20
508.769764
 42
-0.022166
  0
VERTEX
  8
0
 10
692.444372
 20
505.832648
 42
-0.018708
  0
VERTEX
  8
0
 10
693.140060
 20
502.656900
 42
-0.034640
  0
VERTEX
  8
0
 10
694.139322
 20
493.524932
 42
-0.010014
  0
VERTEX
  8
0
 10
694.419107
 20
479.332541
 42
-0.010017
  0
VERTEX
  8
0
 10
694.130238
 20
465.139113
 42
-0.034582
  0
VERTEX
  8
0
 10
693.125308
 20
456.000000
 42
-0.017539
  0
VERTEX
  8
0
 10
691.460183
 20
448.328225
 42
-0.015146
  0
VERTEX
  8
0
 10
689.188925
 20
440.402683
 42
-0.015146
  0
VERTEX
  8
0
 10
686.715877
 20
433.404219
 42
-0.048321
  0
VERTEX
  8
0
 10
684.489478
 20
428.983331
 42
0.015239
  0
VERTEX
  8
0
 10
683.252734
 20
426.885182
 42
0.003067
  0
VERTEX
  8
0
 10
681.190000
 20
423.073344
 42
0.003236
  0
VERTEX
  8
0
 10
678.845140
 20
418.606539
 42
0.003019
  0
VERTEX
  8
0
 10
676.502759
 20
414.005501
 42
0.035133
  0
VERTEX
  8
0
 10
667.050319
 20
391.309073
 42
0.034230
  0
VERTEX
  8
0
 10
660.771365
 20
367.315826
 42
0.034675
  0
VERTEX
  8
0
 10
657.884948
 20
343.010323
 42
0.038486
  0
VERTEX
  8
0
 10
658.547923
 20
319.383470
 42
-0.001079
  0
VERTEX
  8
0
 10
661.382238
 20
291.916923
 42
-0.008189
  0
VERTEX
  8
0
 10
662.478390
 20
278.943286
 42
-0.014549
  0
VERTEX
  8
0
 10
662.860798
 20
269.096366
 42
-0.008251
  0
VERTEX
  8
0
 10
662.779876
 20
257.164161
 42
-0.003953
  0
VERTEX
  8
0
 10
662.439966
 20
246.268948
 42
-0.023608
  0
VERTEX
  8
0
 10
661.950224
 20
240.608248
 42
-0.033409
  0
VERTEX
  8
0
 10
660.991141
 20
235.884268
 42
-0.013008
  0
VERTEX
  8
0
 10
659.064355
 20
229.500000
 42
-0.014727
  0
VERTEX
  8
0
 10
655.567304
 20
219.877280
 42
-0.031358
  0
VERTEX
  8
0
 10
652.190934
 20
212.718864
 42
-0.037479
  0
VERTEX
  8
0
 10
648.387315
 20
206.892231
 42
-0.033620
  0
VERTEX
  8
0
 10
643.626544
 20
201.469403
 42
-0.048973
  0
VERTEX
  8
0
 10
635.262256
 20
194.632789
 42
-0.058730
  0
VERTEX
  8
0
 10
626.202958
 20
190.030494
 42
-0.057677
  0
VERTEX
  8
0
 10
616.184294
 20
187.605388
 42
-0.044811
  0
VERTEX
  8
0
 10
604.967057
 20
187.238435
 42
-0.035922
  0
VERTEX
  8
0
 10
596.516670
 20
188.331822
 42
-0.100023
  0
VERTEX
  8
0
 10
591.031749
 20
190.649967
 42
-0.132402
  0
VERTEX
  8
0
 10
587.769624
 20
194.458505
 42
-0.087524
  0
VERTEX
  8
0
 10
586.221934
 20
200.042090
 42
0.011226
  0
VERTEX
  8
0
 10
585.879208
 20
202.927006
 42
0.089837
  0
VERTEX
  8
0
 10
585.459883
 20
204.192827
 42
0.206045
  0
VERTEX
  8
0
 10
584.768057
 20
204.735666
 42
0.100658
  0
VERTEX
  8
0
 10
583.627120
 20
204.802221
 42
0.096284
  0
VERTEX
  8
0
 10
582.724712
 20
204.488733
 42
0.050034
  0
VERTEX
  8
0
 10
581.755118
 20
203.787252
 42
0.047165
  0
VERTEX
  8
0
 10
580.870002
 20
202.837609
 42
0.052615
  0
VERTEX
  8
0
 10
580.215059
 20
201.771404
 42
0.110561
  0
VERTEX
  8
0
 10
579.427403
 20
198.337689
 42
0.089695
  0
VERTEX
  8
0
 10
580.081673
 20
194.607933
 42
0.075050
  0
VERTEX
  8
0
 10
582.179348
 20
190.789821
 42
0.049241
  0
VERTEX
  8
0
 10
585.608174
 20
187.113696
 42
0.030189
  0
VERTEX
  8
0
 10
591.013116
 20
182.906516
 42
0.065665
  0
VERTEX
  8
0
 10
595.691714
 20
180.530380
 42
0.061296
  0
VERTEX
  8
0
 10
601.028744
 20
179.357373
 42
0.023481
  0
VERTEX
  8
0
 10
608.634223
 20
179.000000
 42
0.037257
  0
VERTEX
  8
0
 10
620.108578
 20
179.856200
 42
0.059089
  0
VERTEX
  8
0
 10
629.603156
 20
182.453287
 42
0.060087
  0
VERTEX
  8
0
 10
638.115640
 20
187.159908
 42
0.040056
  0
VERTEX
  8
0
 10
646.611198
 20
194.391048
 42
0.056532
  0
VERTEX
  8
0
 10
654.945374
 20
204.854333
 42
0.044458
  0
VERTEX
  8
0
 10
661.524741
 20
217.780710
 42
0.040423
  0
VERTEX
  8
0
 10
666.227231
 20
232.920796
 42
0.031192
  0
VERTEX
  8
0
 10
668.948195
 20
250.000000
 42
0.011840
  0
VERTEX
  8
0
 10
669.706648
 20
260.523949
 42
0.022218
  0
VERTEX
  8
0
 10
669.739368
 20
269.051128
 42
0.018548
  0
VERTEX
  8
0
 10
669.003947
 20
278.499025
 42
0.005905
  0
VERTEX
  8
0
 10
667.222109
 20
292.500000
 42
-0.020031
  0
VERTEX
  8
0
 10
664.955388
 20
315.475999
 42
-0.018520
  0
VERTEX
  8
0
 10
664.451901
 20
339.170945
 42
-0.019342
  0
VERTEX
  8
0
 10
665.636939
 20
360.905343
 42
-0.040226
  0
VERTEX
  8
0
 10
668.566110
 20
377.612777
 42
-0.022791
  0
VERTEX
  8
0
 10
670.290897
 20
383.197667
 42
-0.020041
  0
VERTEX
  8
0
 10
672.583504
 20
388.852250
 42
-0.020273
  0
VERTEX
  8
0
 10
675.045505
 20
393.749780
 42
-0.062039
  0
VERTEX
  8
0
 10
677.232096
 20
396.747054
 42
-0.108299
  0
VERTEX
  8
0
 10
679.709582
 20
398.445088
 42
-0.104221
  0
VERTEX
  8
0
 10
682.705546
 20
398.982224
 42
-0.094508
  0
VERTEX
  8
0
 10
685.903891
 20
398.271224
 42
-0.073207
  0
VERTEX
  8
0
 10
688.945817
 20
396.392139
 42
-0.040315
  0
VERTEX
  8
0
 10
692.146377
 20
393.225360
 42
-0.146644
  0
VERTEX
  8
0
 10
693.297105
 20
390.640964
 42
-0.099340
  0
VERTEX
  8
0
 10
693.060662
 20
387.284925
 42
-0.013305
  0
VERTEX
  8
0
 10
690.990072
 20
380.470201
 42
0.008685
  0
VERTEX
  8
0
 10
689.833377
 20
376.786004
 42
0.012863
  0
VERTEX
  8
0
 10
688.959476
 20
373.515699
 42
0.008015
  0
VERTEX
  8
0
 10
688.350420
 20
370.783958
 42
0.191519
  0
VERTEX
  8
0
 10
688.484765
 20
370.024650
 42
0.119211
  0
VERTEX
  8
0
 10
688.882801
 20
369.630952
 42
0.048332
  0
VERTEX
  8
0
 10
689.575613
 20
369.299674
 42
0.044217
  0
VERTEX
  8
0
 10
690.423914
 20
369.073042
 42
0.042686
  0
VERTEX
  8
0
 10
691.309017
 20
368.995516
 42
-0.076537
  0
VERTEX
  8
0
 10
692.444222
 20
368.818343
 42
-0.174190
  0
VERTEX
  8
0
 10
693.124167
 20
368.298739
 42
-0.109329
  0
VERTEX
  8
0
 10
693.504694
 20
367.274019
 42
-0.021423
  0
VERTEX
  8
0
 10
693.692204
 20
365.304754
 42
0.100961
  0
VERTEX
  8
0
 10
695.579336
 20
358.015595
 42
0.034323
  0
VERTEX
  8
0
 10
701.073564
 20
348.490374
 42
0.034095
  0
VERTEX
  8
0
 10
707.070409
 20
340.763118
 42
0.498610
  0
VERTEX
  8
0
 10
710.024626
 20
341.007132
 42
0.011497
  0
VERTEX
  8
0
 10
710.410977
 20
341.651191
 42
0.009596
  0
VERTEX
  8
0
 10
710.792144
 20
342.352010
 42
0.009717
  0
VERTEX
  8
0
 10
711.116172
 20
343.006815
 42
0.025909
  0
VERTEX
  8
0
 10
711.313435
 20
343.489074
 42
-0.414475
  0
VERTEX
  8
0
 10
711.727167
 20
343.688155
 42
-0.024479
  0
VERTEX
  8
0
 10
713.149976
 20
343.109430
 42
-0.025428
  0
VERTEX
  8
0
 10
714.976097
 20
342.144518
 42
-0.014571
  0
VERTEX
  8
0
 10
717.079691
 20
340.807757
 42
0.029546
  0
VERTEX
  8
0
 10
721.914265
 20
337.934986
 42
0.047006
  0
VERTEX
  8
0
 10
726.373543
 20
336.137656
 42
0.049486
  0
VERTEX
  8
0
 10
730.918493
 20
335.262146
 42
0.037476
  0
VERTEX
  8
0
 10
736.000000
 20
335.178318
 42
0.011351
  0
VERTEX
  8
0
 10
739.146504
 20
335.434129
 42
0.079705
  0
VERTEX
  8
0
 10
740.627131
 20
335.832604
 42
0.162436
  0
VERTEX
  8
0
 10
741.410576
 20
336.553773
 42
0.091209
  0
VERTEX
  8
0
 10
741.825252
 20
337.793504
 42
-0.047213
  0
VERTEX
  8
0
 10
742.068476
 20
338.808341
 42
-0.126179
  0
VERTEX
  8
0
 10
742.473433
 20
339.425603
 42
-0.161591
  0
VERTEX
  8
0
 10
743.054806
 20
339.684346
 42
-0.093313
  0
VERTEX
  8
0
 10
743.825252
 20
339.616554
 42
0.044915
  0
VERTEX
  8
0
 10
750.461733
 20
338.380912
 42
0.066813
  0
VERTEX
  8
0
 10
756.358218
 20
338.611678
 42
0.075729
  0
VERTEX
  8
0
 10
761.424378
 20
340.311447
 42
0.081463
  0
VERTEX
  8
0
 10
765.613301
 20
343.413696
 42
0.028148
  0
VERTEX
  8
0
 10
767.895619
 20
346.044957
 42
0.185444
  0
VERTEX
  8
0
 10
768.387647
 20
347.684810
 42
0.316088
  0
VERTEX
  8
0
 10
767.565725
 20
348.685707
 42
0.066247
  0
VERTEX
  8
0
 10
765.190983
 20
349.017138
 42
-0.037567
  0
VERTEX
  8
0
 10
763.705943
 20
349.138388
 42
-0.008078
  0
VERTEX
  8
0
 10
761.160789
 20
349.582416
 42
-0.008392
  0
VERTEX
  8
0
 10
758.223010
 20
350.195271
 42
-0.007921
  0
VERTEX
  8
0
 10
755.250000
 20
350.917422
 42
0.013093
  0
VERTEX
  8
0
 10
750.635778
 20
351.987813
 42
0.104708
  0
VERTEX
  8
0
 10
748.464396
 20
351.972842
 42
0.582930
  0
VERTEX
  8
0
 10
748.231080
 20
351.217790
 42
0.064263
  0
VERTEX
  8
0
 10
750.000000
 20
349.767927
 42
-0.080785
  0
VERTEX
  8
0
 10
751.111037
 20
348.794520
 42
-0.072688
  0
VERTEX
  8
0
 10
751.904800
 20
347.485180
 42
-0.122232
  0
VERTEX
  8
0
 10
752.070154
 20
346.437995
 42
-0.389057
  0
VERTEX
  8
0
 10
751.592464
 20
346.000000
 42
-0.152208
  0
VERTEX
  8
0
 10
751.298146
 20
346.091720
 42
-0.000417
  0
VERTEX
  8
0
 10
747.825917
 20
348.492924
 42
-0.002458
  0
VERTEX
  8
0
 10
743.911861
 20
351.233074
 42
-0.001525
  0
VERTEX
  8
0
 10
739.342464
 20
354.486551
 42
0.002733
  0
VERTEX
  8
0
 10
734.749051
 20
357.740437
 42
0.004277
  0
VERTEX
  8
0
 10
730.758411
 20
360.484129
 42
0.001281
  0
VERTEX
  8
0
 10
727.275622
 20
362.822067
 42
0.143651
  0
VERTEX
  8
0
 10
726.750000
 20
362.986551
 42
0.443829
  0
VERTEX
  8
0
 10
726.112024
 20
362.306254
 42
0.054367
  0
VERTEX
  8
0
 10
726.547810
 20
360.049362
 42
0.022217
  0
VERTEX
  8
0
 10
728.050458
 20
355.852212
 42
0.003250
  0
VERTEX
  8
0
 10
731.529891
 20
347.500000
 42
-0.002136
  0
VERTEX
  8
0
 10
732.658520
 20
344.807690
 42
-0.116611
  0
VERTEX
  8
0
 10
732.746021
 20
344.267223
 42
-0.608661
  0
VERTEX
  8
0
 10
732.531558
 20
344.175131
 42
-0.011525
  0
VERTEX
  8
0
 10
731.363418
 20
345.181164
 42
-0.063755
  0
VERTEX
  8
0
 10
728.679331
 20
348.307497
 42
-0.022842
  0
VERTEX
  8
0
 10
725.671994
 20
353.365497
 42
-0.022874
  0
VERTEX
  8
0
 10
722.953938
 20
359.064879
 42
-0.032202
  0
VERTEX
  8
0
 10
721.103739
 20
364.381792
 42
0.032507
  0
VERTEX
  8
0
 10
719.599991
 20
368.694648
 42
0.039809
  0
VERTEX
  8
0
 10
717.629170
 20
372.479746
 42
0.043201
  0
VERTEX
  8
0
 10
715.556987
 20
375.228439
 42
0.212742
  0
VERTEX
  8
0
 10
713.825686
 20
376.000000
 42
0.313693
  0
VERTEX
  8
0
 10
713.504624
 20
375.776586
 42
0.035492
  0
VERTEX
  8
0
 10
713.242545
 20
374.878571
 42
0.032886
  0
VERTEX
  8
0
 10
713.059665
 20
373.645623
 42
0.020379
  0
VERTEX
  8
0
 10
713.000000
 20
372.182371
 42
-0.047695
  0
VERTEX
  8
0
 10
712.617588
 20
368.182533
 42
-0.011118
  0
VERTEX
  8
0
 10
711.191282
 20
361.583665
 42
-0.006694
  0
VERTEX
  8
0
 10
709.496182
 20
354.903123
 42
-0.143142
  0
VERTEX
  8
0
 10
708.448047
 20
353.179030
 42
-0.382034
  0
VERTEX
  8
0
 10
708.234798
 20
353.176820
 42
-0.200148
  0
VERTEX
  8
0
 10
708.108660
 20
353.433840
 42
-0.057291
  0
VERTEX
  8
0
 10
708.143276
 20
354.082728
 42
-0.019952
  0
VERTEX
  8
0
 10
708.336536
 20
355.000000
 42
0.025169
  0
VERTEX
  8
0
 10
709.582097
 20
361.233415
 42
0.019057
  0
VERTEX
  8
0
 10
710.339616
 20
368.169372
 42
0.019169
  0
VERTEX
  8
0
 10
710.548851
 20
374.636426
 42
0.051162
  0
VERTEX
  8
0
 10
710.051036
 20
379.218256
 42
0.042426
  0
VERTEX
  8
0
 10
708.818735
 20
383.269854
 42
0.030040
  0
VERTEX
  8
0
 10
706.792394
 20
387.572694
 42
0.024314
  0
VERTEX
  8
0
 10
704.573136
 20
391.202127
 42
0.248263
  0
VERTEX
  8
0
 10
703.065267
 20
392.000000
 42
0.232138
  0
VERTEX
  8
0
 10
702.672607
 20
391.807314
 42
0.044405
  0
VERTEX
  8
0
 10
702.231598
 20
391.118750
 42
0.039103
  0
VERTEX
  8
0
 10
701.818482
 20
390.149039
 42
0.027097
  0
VERTEX
  8
0
 10
701.500000
 20
389.000000
 42
-0.032248
  0
VERTEX
  8
0
 10
700.734578
 20
386.344949
 42
-0.627856
  0
VERTEX
  8
0
 10
700.085113
 20
386.276936
 42
-0.128171
  0
VERTEX
  8
0
 10
699.582174
 20
387.909249
 42
-0.011375
  0
VERTEX
  8
0
 10
699.490212
 20
392.250000
 42
0.000000
  0
VERTEX
  8
0
 10
699.500000
 20
398.500000
 42
0.000000
  0
VERTEX
  8
0
 10
694.147412
 20
401.152588
 42
-0.008960
  0
VERTEX
  8
0
 10
689.654280
 20
403.480452
 42
-0.070816
  0
VERTEX
  8
0
 10
687.774616
 20
404.872167
 42
-0.492619
  0
VERTEX
  8
0
 10
687.868310
 20
405.627691
 42
-0.133780
  0
VERTEX
  8
0
 10
689.234900
 20
406.000000
 42
-0.029878
  0
VERTEX
  8
0
 10
690.434051
 20
405.928280
 42
-0.017060
  0
VERTEX
  8
0
 10
691.868530
 20
405.706208
 42
-0.016995
  0
VERTEX
  8
0
 10
693.301646
 20
405.383185
 42
-0.026916
  0
VERTEX
  8
0
 10
694.500375
 20
404.999857
 42
0.037823
  0
VERTEX
  8
0
 10
695.766896
 20
404.625066
 42
0.052969
  0
VERTEX
  8
0
 10
696.939345
 20
404.500008
 42
0.058574
  0
VERTEX
  8
0
 10
698.015609
 20
404.626062
 42
0.064537
  0
VERTEX
  8
0
 10
698.996174
 20
404.997952
 42
-0.039039
  0
VERTEX
  8
0
 10
699.987625
 20
405.432833
 42
-0.208320
  0
VERTEX
  8
0
 10
700.563651
 20
405.389292
 42
-0.200843
  0
VERTEX
  8
0
 10
700.937140
 20
404.935076
 42
-0.036145
  0
VERTEX
  8
0
 10
701.180699
 20
403.843365
 42
0.221214
  0
VERTEX
  8
0
 10
702.892825
 20
401.245207
 42
0.015831
  0
VERTEX
  8
0
 10
710.582947
 20
396.831301
 42
0.022810
  0
VERTEX
  8
0
 10
719.198401
 20
392.735351
 42
0.037388
  0
VERTEX
  8
0
 10
726.854705
 20
390.168893
 42
-0.010443
  0
VERTEX
  8
0
 10
729.554480
 20
389.422925
 42
-0.019141
  0
VERTEX
  8
0
 10
731.714600
 20
388.686060
 42
-0.016519
  0
VERTEX
  8
0
 10
733.279532
 20
388.024315
 42
-0.521598
  0
VERTEX
  8
0
 10
733.341703
 20
387.675037
 42
-0.201229
  0
VERTEX
  8
0
 10
731.531051
 20
386.934471
 42
-0.032765
  0
VERTEX
  8
0
 10
727.663712
 20
387.222790
 42
-0.030237
  0
VERTEX
  8
0
 10
722.724038
 20
388.226051
 42
-0.018526
  0
VERTEX
  8
0
 10
717.040834
 20
389.970878
 42
0.004850
  0
VERTEX
  8
0
 10
713.771704
 20
391.073230
 42
0.007778
  0
VERTEX
  8
0
 10
710.959455
 20
391.943072
 42
0.002664
  0
VERTEX
  8
0
 10
708.542784
 20
392.635614
 42
0.271157
  0
VERTEX
  8
0
 10
708.217097
 20
392.550431
 42
0.321981
  0
VERTEX
  8
0
 10
708.079438
 20
391.710235
 42
0.016046
  0
VERTEX
  8
0
 10
709.477285
 20
389.106428
 42
0.024577
  0
VERTEX
  8
0
 10
711.158078
 20
386.506663
 42
0.053091
  0
VERTEX
  8
0
 10
712.743098
 20
384.732493
 42
0.076153
  0
VERTEX
  8
0
 10
714.002913
 20
383.900692
 42
0.012424
  0
VERTEX
  8
0
 10
716.698862
 20
382.739531
 42
0.013438
  0
VERTEX
  8
0
 10
719.968674
 20
381.527500
 42
0.011481
  0
VERTEX
  8
0
 10
723.474242
 20
380.423343
 42
-0.015881
  0
VERTEX
  8
0
 10
730.434695
 20
378.163490
 42
-0.011075
  0
VERTEX
  8
0
 10
738.139919
 20
375.194028
 42
-0.003859
  0
VERTEX
  8
0
 10
745.490995
 20
372.105877
 42
-0.530427
  0
VERTEX
  8
0
 10
745.643932
 20
371.310598
 42
-0.252331
  0
VERTEX
  8
0
 10
745.274501
 20
371.199931
 42
-0.001573
  0
VERTEX
  8
0
 10
741.764211
 20
371.935045
 42
-0.005816
  0
VERTEX
  8
0
 10
737.722280
 20
372.844039
 42
-0.003613
  0
VERTEX
  8
0
 10
733.000000
 20
374.000000
 42
0.004108
  0
VERTEX
  8
0
 10
728.273885
 20
375.151939
 42
0.006580
  0
VERTEX
  8
0
 10
724.219607
 20
376.048773
 42
0.002007
  0
VERTEX
  8
0
 10
720.717471
 20
376.760617
 42
0.250531
  0
VERTEX
  8
0
 10
720.300981
 20
376.634314
 42
0.352030
  0
VERTEX
  8
0
 10
720.263923
 20
376.293895
 42
0.012391
  0
VERTEX
  8
0
 10
721.055846
 20
375.119567
 42
0.018100
  0
VERTEX
  8
0
 10
722.138668
 20
373.707786
 42
0.011058
  0
VERTEX
  8
0
 10
723.511717
 20
372.118710
 42
0.052286
  0
VERTEX
  8
0
 10
727.337251
 20
368.684081
 42
0.040022
  0
VERTEX
  8
0
 10
732.141203
 20
365.757692
 42
0.039394
  0
VERTEX
  8
0
 10
737.444801
 20
363.587657
 42
0.045788
  0
VERTEX
  8
0
 10
742.763985
 20
362.408677
 42
-0.010872
  0
VERTEX
  8
0
 10
745.356114
 20
362.021282
 42
-0.062773
  0
VERTEX
  8
0
 10
746.679144
 20
361.618567
 42
-0.213085
  0
VERTEX
  8
0
 10
747.125819
 20
361.119490
 42
-0.256109
  0
VERTEX
  8
0
 10
747.007635
 20
360.509200
 42
-0.113138
  0
VERTEX
  8
0
 10
746.436355
 20
360.072423
 42
-0.054156
  0
VERTEX
  8
0
 10
745.554514
 20
359.780944
 42
-0.049727
  0
VERTEX
  8
0
 10
744.523190
 20
359.665315
 42
-0.050333
  0
VERTEX
  8
0
 10
743.493650
 20
359.756463
 42
0.033982
  0
VERTEX
  8
0
 10
742.337438
 20
359.896987
 42
0.111752
  0
VERTEX
  8
0
 10
741.584377
 20
359.768050
 42
0.177608
  0
VERTEX
  8
0
 10
741.157606
 20
359.375463
 42
0.119449
  0
VERTEX
  8
0
 10
741.000000
 20
358.725157
 42
0.268757
  0
VERTEX
  8
0
 10
741.873326
 20
357.217760
 42
0.036196
  0
VERTEX
  8
0
 10
745.304724
 20
355.567713
 42
0.028356
  0
VERTEX
  8
0
 10
750.579767
 20
353.824496
 42
0.010826
  0
VERTEX
  8
0
 10
758.096258
 20
351.978559
 42
0.005626
  0
VERTEX
  8
0
 10
763.622707
 20
350.812674
 42
0.041548
  0
VERTEX
  8
0
 10
766.297180
 20
350.507500
 42
0.075567
  0
VERTEX
  8
0
 10
768.287561
 20
350.748065
 42
0.043011
  0
VERTEX
  8
0
 10
770.563904
 20
351.597349
 42
0.017282
  0
VERTEX
  8
0
 10
771.880218
 20
352.278670
 42
0.024851
  0
VERTEX
  8
0
 10
772.990647
 20
352.977765
 42
0.022613
  0
VERTEX
  8
0
 10
773.818696
 20
353.616170
 42
0.220678
  0
VERTEX
  8
0
 10
774.000000
 20
354.006953
 42
0.246387
  0
VERTEX
  8
0
 10
773.626600
 20
354.718703
 42
0.057748
  0
VERTEX
  8
0
 10
772.399019
 20
355.372104
 42
0.049905
  0
VERTEX
  8
0
 10
770.727820
 20
355.841886
 42
0.043604
  0
VERTEX
  8
0
 10
768.918213
 20
356.000000
 42
-0.082098
  0
VERTEX
  8
0
 10
768.046423
 20
356.144116
 42
-0.142743
  0
VERTEX
  8
0
 10
767.450516
 20
356.561695
 42
-0.120209
  0
VERTEX
  8
0
 10
767.108729
 20
357.293901
 42
-0.049405
  0
VERTEX
  8
0
 10
767.000000
 20
358.391592
 42
0.065248
  0
VERTEX
  8
0
 10
766.846959
 20
359.559361
 42
0.117323
  0
VERTEX
  8
0
 10
766.391117
 20
360.405397
 42
0.104692
  0
VERTEX
  8
0
 10
765.560821
 20
361.016383
 42
0.044997
  0
VERTEX
  8
0
 10
764.255594
 20
361.471986
 42
-0.031924
  0
VERTEX
  8
0
 10
761.356020
 20
362.399938
 42
-0.145796
  0
VERTEX
  8
0
 10
759.976647
 20
363.477364
 42
-0.221200
  0
VERTEX
  8
0
 10
759.722349
 20
364.853368
 42
-0.082033
  0
VERTEX
  8
0
 10
760.538549
 20
366.699178
 42
0.028783
  0
VERTEX
  8
0
 10
761.410140
 20
368.212692
 42
0.183925
  0
VERTEX
  8
0
 10
761.497971
 20
369.078007
 42
0.148151
  0
VERTEX
  8
0
 10
760.995355
 20
369.885435
 42
0.016792
  0
VERTEX
  8
0
 10
759.311079
 20
371.264975
 42
-0.023726
  0
VERTEX
  8
0
 10
756.464379
 20
373.663320
 42
-0.013590
  0
VERTEX
  8
0
 10
753.254063
 20
376.805956
 42
-0.013242
  0
VERTEX
  8
0
 10
750.067547
 20
380.279053
 42
-0.016078
  0
VERTEX
  8
0
 10
747.276959
 20
383.703535
 42
-0.008630
  0
VERTEX
  8
0
 10
745.594326
 20
385.990374
 42
-0.117037
  0
VERTEX
  8
0
 10
745.208727
 20
386.944495
 42
-0.231371
  0
VERTEX
  8
0
 10
745.441814
 20
387.688284
 42
-0.045281
  0
VERTEX
  8
0
 10
746.525229
 20
388.642106
 42
0.036509
  0
VERTEX
  8
0
 10
747.615776
 20
389.568814
 42
0.270465
  0
VERTEX
  8
0
 10
747.787451
 20
390.200997
 42
0.145673
  0
VERTEX
  8
0
 10
747.345201
 20
390.918396
 42
0.009583
  0
VERTEX
  8
0
 10
745.480404
 20
392.520861
 42
0.025553
  0
VERTEX
  8
0
 10
737.998773
 20
398.086867
 42
0.028400
  0
VERTEX
  8
0
 10
730.240201
 20
402.650936
 42
0.029342
  0
VERTEX
  8
0
 10
722.261498
 20
406.178579
 42
0.031649
  0
VERTEX
  8
0
 10
714.121627
 20
408.646202
 42
0.038978
  0
VERTEX
  8
0
 10
708.675448
 20
409.486879
 42
0.021187
  0
VERTEX
  8
0
 10
701.904453
 20
409.709501
 42
0.018572
  0
VERTEX
  8
0
 10
694.045663
 20
409.342691
 42
0.013076
  0
VERTEX
  8
0
 10
685.250000
 20
408.371866
 42
-0.013661
  0
VERTEX
  8
0
 10
683.047334
 20
408.131356
 42
-0.074591
  0
VERTEX
  8
0
 10
681.854835
 20
408.211932
 42
-0.176119
  0
VERTEX
  8
0
 10
681.240147
 20
408.601634
 42
-0.165769
  0
VERTEX
  8
0
 10
681.000000
 20
409.306071
 42
-0.187940
  0
VERTEX
  8
0
 10
681.750719
 20
411.232761
 42
-0.046921
  0
VERTEX
  8
0
 10
684.306014
 20
413.537702
 42
-0.047664
  0
VERTEX
  8
0
 10
687.387326
 20
415.405335
 42
-0.112888
  0
VERTEX
  8
0
 10
689.987631
 20
416.000000
 42
0.041571
  0
VERTEX
  8
0
 10
691.483711
 20
416.124604
 42
0.011194
  0
VERTEX
  8
0
 10
693.825688
 20
416.571557
 42
0.011257
  0
VERTEX
  8
0
 10
696.472095
 20
417.200907
 42
0.011436
  0
VERTEX
  8
0
 10
699.073444
 20
417.945727
 42
0.066613
  0
VERTEX
  8
0
 10
709.234433
 20
422.664468
 42
0.073292
  0
VERTEX
  8
0
 10
717.430609
 20
429.768183
 42
0.071749
  0
VERTEX
  8
0
 10
723.357416
 20
439.074022
 42
0.060146
  0
VERTEX
  8
0
 10
726.859967
 20
450.250000
 42
0.008435
  0
VERTEX
  8
0
 10
727.342145
 20
453.115879
 42
0.094914
  0
VERTEX
  8
0
 10
727.296855
 20
454.263443
 42
0.251949
  0
VERTEX
  8
0
 10
726.815476
 20
454.809719
 42
0.088943
  0
VERTEX
  8
0
 10
725.754263
 20
455.000000
 42
-0.051029
  0
VERTEX
  8
0
 10
724.766896
 20
455.101031
 42
-0.216665
  0
VERTEX
  8
0
 10
724.299109
 20
455.442584
 42
-0.175287
  0
VERTEX
  8
0
 10
724.192521
 20
456.077446
 42
-0.032153
  0
VERTEX
  8
0
 10
724.485674
 20
457.250000
 42
0.046196
  0
VERTEX
  8
0
 10
724.794282
 20
458.650112
 42
0.005755
  0
VERTEX
  8
0
 10
725.146229
 20
461.748361
 42
0.006743
  0
VERTEX
  8
0
 10
725.472982
 20
465.446992
 42
0.005539
  0
VERTEX
  8
0
 10
725.724798
 20
469.403994
 42
0.003046
  0
VERTEX
  8
0
 10
726.013526
 20
475.624565
 42
0.046842
  0
VERTEX
  8
0
 10
725.899226
 20
477.765891
 42
0.248043
  0
VERTEX
  8
0
 10
725.353035
 20
478.509968
 42
0.213216
  0
VERTEX
  8
0
 10
724.372493
 20
478.540540
 42
-0.009192
  0
VERTEX
  8
0
 10
721.292722
 20
477.343924
 42
-0.086252
  0
VERTEX
  8
0
 10
719.899763
 20
477.090265
 42
-0.420725
  0
VERTEX
  8
0
 10
719.476888
 20
477.515720
 42
-0.124658
  0
VERTEX
  8
0
 10
719.741893
 20
478.503272
 42
0.141878
  0
VERTEX
  8
0
 10
720.239886
 20
480.646253
 42
0.051102
  0
VERTEX
  8
0
 10
719.749908
 20
483.768567
 42
0.030537
  0
VERTEX
  8
0
 10
718.250558
 20
488.310820
 42
0.007956
  0
VERTEX
  8
0
 10
715.285381
 20
495.407177
 42
0.002079
  0
VERTEX
  8
0
 10
712.435309
 20
501.860842
 42
0.053929
  0
VERTEX
  8
0
 10
711.476952
 20
503.504864
 42
0.393753
  0
VERTEX
  8
0
 10
710.730003
 20
503.644684
 42
0.124492
  0
VERTEX
  8
0
 10
709.875307
 20
502.741670
 42
-0.060035
  0
VERTEX
  8
0
 10
708.872223
 20
501.366290
 42
-0.285807
  0
VERTEX
  8
0
 10
707.973942
 20
501.123505
 42
-0.221285
  0
VERTEX
  8
0
 10
707.177821
 20
501.833608
 42
-0.040607
  0
VERTEX
  8
0
 10
706.530550
 20
503.750000
 42
0.073129
  0
VERTEX
  8
0
 10
705.132200
 20
507.146497
 42
0.052002
  0
VERTEX
  8
0
 10
702.668266
 20
510.452621
 42
0.049141
  0
VERTEX
  8
0
 10
699.401318
 20
513.365821
 42
0.048600
  0
VERTEX
  8
0
 10
695.617030
 20
515.597842
 42
0.018361
  0
VERTEX
  8
0
 10
692.079557
 20
517.089519
 42
0.044817
  0
VERTEX
  8
0
 10
689.358613
 20
517.850660
 42
0.079860
  0
VERTEX
  8
0
 10
687.609281
 20
517.892315
 42
0.375040
  0
SEQEND
  0
POLYLINE
  8
0
 66
1
 70
1
  0
VERTEX
  8
0
 10
712.000000
 20
495.111867
 42
-0.062498
  0
VERTEX
  8
0
 10
711.921207
 20
494.483970
 42
-0.001813
  0
VERTEX
  8
0
 10
711.247533
 20
491.881449
 42
-0.003628
  0
VERTEX
  8
0
 10
710.419911
 20
488.821842
 42
-0.002488
  0
VERTEX
  8
0
 10
709.438411
 20
485.361867
 42
-0.028392
  0
VERTEX
  8
0
 10
706.381633
 20
476.669565
 42
-0.029980
  0
VERTEX
  8
0
 10
702.406438
 20
468.541581
 42
-0.027820
  0
VERTEX
  8
0
 10
698.499764
 20
462.452507
 42
-0.461690
  0
VERTEX
  8
0
 10
696.383141
 20
462.283526
 42
-0.302658
  0
VERTEX
  8
0
 10
696.288166
 20
462.757871
 42
-0.006047
  0
VERTEX
  8
0
 10
697.297529
 20
465.130215
 42
-0.012210
  0
VERTEX
  8
0
 10
698.618064
 20
467.944094
 42
-0.007628
  0
VERTEX
  8
0
 10
700.294311
 20
471.176027
 42
0.011784
  0
VERTEX
  8
0
 10
702.218074
 20
474.961846
 42
0.007370
  0
VERTEX
  8
0
 10
704.299102
 20
479.477507
 42
0.007396
  0
VERTEX
  8
0
 10
706.218886
 20
483.989190
 42
0.013349
  0
VERTEX
  8
0
 10
707.637004
 20
487.747402
 42
-0.007589
  0
VERTEX
  8
0
 10
708.788593
 20
490.909055
 42
-0.012076
  0
VERTEX
  8
0
 10
709.879307
 20
493.572893
 42
-0.005995
  0
VERTEX
  8
0
 10
710.864458
 20
495.750961
 42
-0.290418
  0
VERTEX
  8
0
 10
711.250000
 20
495.997402
 42
-0.117799
  0
VERTEX
  8
0
 10
711.536063
 20
495.930104
 42
-0.100968
  0
VERTEX
  8
0
 10
711.779688
 20
495.738348
 42
-0.093003
  0
VERTEX
  8
0
 10
711.943245
 20
495.450856
 42
-0.083134
  0
SEQEND
  0
POLYLINE
  8
0
 66
1
 70
1
  0
VERTEX
  8
0
 10
718.574335
 20
464.333117
 42
-0.074670
  0
VERTEX
  8
0
 10
716.838973
 20
461.270159
 42
-0.007286
  0
VERTEX
  8
0
 10
711.480510
 20
454.631716
 42
-0.003792
  0
VERTEX
  8
0
 10
705.697444
 20
447.783402
 42
-0.207108
  0
VERTEX
  8
0
 10
704.209507
 20
447.058198
 42
0.088703
  0
VERTEX
  8
0
 10
703.534005
 20
446.905717
 42
0.020353
  0
VERTEX
  8
0
 10
702.471491
 20
446.405959
 42
0.020418
  0
VERTEX
  8
0
 10
701.277042
 20
445.720188
 42
0.018659
  0
VERTEX
  8
0
 10
700.105035
 20
444.919535
 42
-0.042073
  0
VERTEX
  8
0
 10
698.774175
 20
444.098916
 42
-0.040822
  0
VERTEX
  8
0
 10
697.311457
 20
443.503045
 42
-0.042906
  0
VERTEX
  8
0
 10
695.856502
 20
443.178473
 42
-0.063525
  0
VERTEX
  8
0
 10
694.551154
 20
443.169535
 42
-0.079262
  0
VERTEX
  8
0
 10
693.286552
 20
443.530747
 42
-0.476828
  0
VERTEX
  8
0
 10
693.143271
 20
444.105037
 42
-0.074858
  0
VERTEX
  8
0
 10
694.177452
 20
445.119926
 42
-0.003540
  0
VERTEX
  8
0
 10
698.155626
 20
447.956774
 42
0.017252
  0
VERTEX
  8
0
 10
701.051100
 20
450.143737
 42
0.008765
  0
VERTEX
  8
0
 10
704.545715
 20
453.080745
 42
0.008696
  0
VERTEX
  8
0
 10
708.049122
 20
456.240293
 42
0.012854
  0
VERTEX
  8
0
 10
711.000000
 20
459.141631
 42
-0.006750
  0
VERTEX
  8
0
 10
715.304159
 20
463.478114
 42
-0.043722
  0
VERTEX
  8
0
 10
717.680749
 20
465.432624
 42
-0.404866
  0
VERTEX
  8
0
 10
718.444379
 20
465.302701
 42
-0.255153
  0
SEQEND
  0
POLYLINE
  8
0
 66
1
 70
1
  0
VERTEX
  8
0
 10
715.000000
 20
439.587521
 42
-0.256623
  0
VERTEX
  8
0
 10
714.093731
 20
437.938047
 42
-0.008273
  0
VERTEX
  8
0
 10
707.395691
 20
433.836590
 42
-0.016364
  0
VERTEX
  8
0
 10
700.331537
 20
429.975859
 42
-0.031806
  0
VERTEX
  8
0
 10
694.422864
 20
427.450826
 42
-0.035381
  0
VERTEX
  8
0
 10
691.045106
 20
426.517714
 42
-0.062862
  0
VERTEX
  8
0
 10
688.170448
 20
426.306802
 42
-0.142226
  0
VERTEX
  8
0
 10
686.627535
 20
426.843709
 42
-0.395631
  0
VERTEX
  8
0
 10
686.419620
 20
427.869942
 42
-0.144908
  0
VERTEX
  8
0
 10
686.874733
 20
428.276746
 42
-0.016139
  0
VERTEX
  8
0
 10
688.165803
 20
428.836842
 42
-0.018561
  0
VERTEX
  8
0
 10
689.783427
 20
429.408922
 42
-0.014034
  0
VERTEX
  8
0
 10
691.596811
 20
429.920060
 42
0.034394
  0
VERTEX
  8
0
 10
695.679083
 20
431.252235
 42
0.015270
  0
VERTEX
  8
0
 10
700.865905
 20
433.535842
 42
0.015214
  0
VERTEX
  8
0
 10
706.122988
 20
436.244051
 42
0.023079
  0
VERTEX
  8
0
 10
710.500000
 20
438.941338
 42
-0.013673
  0
VERTEX
  8
0
 10
712.836819
 20
440.442734
 42
-0.100617
  0
VERTEX
  8
0
 10
714.079810
 20
440.886877
 42
-0.305791
  0
VERTEX
  8
0
 10
714.735432
 20
440.569448
 42
-0.132359
  0
SEQEND
  0
POLYLINE
  8
0
 66
1
 70
1
  0
VERTEX
  8
0
 10
660.000000
 20
471.059017
 42
-0.028417
  0
VERTEX
  8
0
 10
659.933633
 20
469.892209
 42
-0.034754
  0
VERTEX
  8
0
 10
659.734696
 20
468.817981
 42
-0.037267
  0
VERTEX
  8
0
 10
659.445710
 20
467.966223
 42
-0.155134
  0
VERTEX
  8
0
 10
659.096837
 20
467.559849
 42
0.362817
  0
VERTEX
  8
0
 10
658.928437
 20
467.053595
 42
0.017085
  0
VERTEX
  8
0
 10
659.697481
 20
465.279976
 42
0.021483
  0
VERTEX
  8
0
 10
660.858407
 20
463.083716
 42
0.012982
  0
VERTEX
  8
0
 10
662.409854
 20
460.582413
 42
-0.019941
  0
VERTEX
  8
0
 10
666.417216
 20
453.916253
 42
-0.066805
  0
VERTEX
  8
0
 10
668.247104
 20
449.169911
 42
-0.080053
  0
VERTEX
  8
0
 10
668.590559
 20
444.586754
 42
-0.037389
  0
VERTEX
  8
0
 10
667.640958
 20
438.691628
 42
-0.023487
  0
VERTEX
  8
0
 10
666.615166
 20
435.143299
 42
-0.008631
  0
VERTEX
  8
0
 10
664.847467
 20
430.234416
 42
-0.008533
  0
VERTEX
  8
0
 10
662.729018
 20
424.930084
 42
-0.010135
  0
VERTEX
  8
0
 10
660.543276
 20
420.000000
 42
0.013611
  0
VERTEX
  8
0
 10
656.480456
 20
410.661422
 42
0.027084
  0
VERTEX
  8
0
 10
653.875448
 20
403.030816
 42
0.031825
  0
VERTEX
  8
0
 10
652.376569
 20
396.039681
 42
0.029600
  0
VERTEX
  8
0
 10
651.729914
 20
388.742822
 42
0.018715
  0
VERTEX
  8
0
 10
651.784186
 20
382.138500
 42
0.015743
  0
VERTEX
  8
0
 10
652.323325
 20
375.162042
 42
0.007288
  0
VERTEX
  8
0
 10
653.115613
 20
368.763001
 42
0.374416
  0
VERTEX
  8
0
 10
653.991696
 20
368.000000
 42
0.289782
  0
VERTEX
  8
0
 10
654.351801
 20
368.227836
 42
0.026849
  0
VERTEX
  8
0
 10
654.769996
 20
369.248438
 42
0.028007
  0
VERTEX
  8
0
 10
655.163575
 20
370.621269
 42
0.017979
  0
VERTEX
  8
0
 10
655.472172
 20
372.250000
 42
-0.008926
  0
VERTEX
  8
0
 10
658.478764
 20
389.854903
 42
-0.023250
  0
VERTEX
  8
0
 10
661.451338
 20
402.353650
 42
-0.022605
  0
VERTEX
  8
0
 10
665.620787
 20
414.720296
 42
-0.008040
  0
VERTEX
  8
0
 10
672.652416
 20
432.000000
 42
0.018805
  0
VERTEX
  8
0
 10
674.091378
 20
435.766386
 42
0.036820
  0
VERTEX
  8
0
 10
674.897001
 20
438.873116
 42
0.033334
  0
VERTEX
  8
0
 10
675.282906
 20
442.259247
 42
0.012777
  0
VERTEX
  8
0
 10
675.383813
 20
447.000000
 42
0.035140
  0
VERTEX
  8
0
 10
674.841723
 20
454.260806
 42
0.056961
  0
VERTEX
  8
0
 10
673.260760
 20
460.238113
 42
0.061966
  0
VERTEX
  8
0
 10
670.496357
 20
465.345000
 42
0.051587
  0
VERTEX
  8
0
 10
666.409072
 20
469.977050
 42
0.012700
  0
VERTEX
  8
0
 10
662.953047
 20
473.004023
 42
0.132435
  0
VERTEX
  8
0
 10
661.254164
 20
473.784355
 42
0.377872
  0
VERTEX
  8
0
 10
660.316145
 20
473.202346
 42
0.073354
  0
SEQEND
  0
POLYLINE
  8
0
 66
1
 70
1
  0
VERTEX
  8
0
 10
571.856530
 20
338.273634
 42
0.020917
  0
VERTEX
  8
0
 10
571.077082
 20
337.267114
 42
0.004798
  0
VERTEX
  8
0
 10
569.849520
 20
335.501396
 42
0.004952
  0
VERTEX
  8
0
 10
568.473538
 20
333.437455
 42
0.004812
  0
VERTEX
  8
0
 10
567.125231
 20
331.326863
 42
-0.008389
  0
VERTEX
  8
0
 10
565.785438
 20
329.262305
 42
-0.009613
  0
VERTEX
  8
0
 10
564.434971
 20
327.336810
 42
-0.008849
  0
VERTEX
  8
0
 10
563.232219
 20
325.749934
 42
-0.053003
  0
VERTEX
  8
0
 10
562.509773
 20
325.008111
 42
0.090707
  0
VERTEX
  8
0
 10
561.807391
 20
324.169380
 42
0.009855
  0
VERTEX
  8
0
 10
560.600948
 20
321.942654
 42
0.011820
  0
VERTEX
  8
0
 10
559.268483
 20
319.206495
 42
0.009276
  0
VERTEX
  8
0
 10
557.950050
 20
316.181248
 42
-0.001939
  0
VERTEX
  8
0
 10
555.365318
 20
310.004449
 42
-0.059969
  0
VERTEX
  8
0
 10
554.540388
 20
308.563635
 42
-0.318917
  0
VERTEX
  8
0
 10
553.742940
 20
308.305044
 42
-0.097522
  0
VERTEX
  8
0
 10
552.565367
 20
308.945750
 42
0.323088
  0
VERTEX
  8
0
 10
551.271609
 20
309.033498
 42
0.206419
  0
VERTEX
  8
0
 10
550.375490
 20
307.741448
 42
0.099350
  0
VERTEX
  8
0
 10
550.372415
 20
305.225766
 42
0.093574
  0
VERTEX
  8
0
 10
551.333140
 20
302.844189
 42
-0.032791
  0
VERTEX
  8
0
 10
552.099861
 20
301.455537
 42
-0.006069
  0
VERTEX
  8
0
 10
553.309163
 20
298.796177
 42
-0.006487
  0
VERTEX
  8
0
 10
554.647440
 20
295.645552
 42
-0.005874
  0
VERTEX
  8
0
 10
555.949885
 20
292.355562
 42
0.014274
  0
VERTEX
  8
0
 10
557.422976
 20
288.809751
 42
0.009878
  0
VERTEX
  8
0
 10
559.281244
 20
284.883481
 42
0.009970
  0
VERTEX
  8
0
 10
561.218222
 20
281.178714
 42
0.020100
  0
VERTEX
  8
0
 10
562.917732
 20
278.355562
 42
0.016281
  0
VERTEX
  8
0
 10
566.141696
 20
273.788007
 42
0.018407
  0
VERTEX
  8
0
 10
569.532680
 20
269.628835
 42
0.010847
  0
VERTEX
  8
0
 10
572.639436
 20
266.243431
 42
0.420437
  0
VERTEX
  8
0
 10
573.566931
 20
266.233598
 42
0.238247
  0
VERTEX
  8
0
 10
573.702188
 20
266.645020
 42
0.004166
  0
VERTEX
  8
0
 10
573.320908
 20
269.030681
 42
0.009519
  0
VERTEX
  8
0
 10
572.791415
 20
271.846813
 42
0.006078
  0
VERTEX
  8
0
 10
572.073991
 20
275.100167
 42
-0.012943
  0
VERTEX
  8
0
 10
569.920857
 20
285.543925
 42
-0.020046
  0
VERTEX
  8
0
 10
568.660440
 20
294.663080
 42
-0.020652
  0
VERTEX
  8
0
 10
568.156911
 20
303.651404
 42
-0.014960
  0
VERTEX
  8
0
 10
568.309884
 20
313.679469
 42
-0.006709
  0
VERTEX
  8
0
 10
568.664532
 20
319.725731
 42
-0.014610
  0
VERTEX
  8
0
 10
569.134075
 20
324.348507
 42
-0.017500
  0
VERTEX
  8
0
 10
569.706347
 20
327.776008
 42
-0.074263
  0
VERTEX
  8
0
 10
570.414816
 20
329.724789
 42
-0.332965
  0
VERTEX
  8
0
 10
571.147412
 20
330.061674
 42
-0.323453
  0
VERTEX
  8
0
 10
571.695079
 20
329.453759
 42
-0.024756
  0
VERTEX
  8
0
 10
571.902482
 20
325.890672
 42
-0.001574
  0
VERTEX
  8
0
 10
571.959962
 20
315.426216
 42
0.011940
  0
VERTEX
  8
0
 10
572.295258
 20
302.643027
 42
0.019144
  0
VERTEX
  8
0
 10
573.258309
 20
291.775321
 42
0.021769
  0
VERTEX
  8
0
 10
574.913304
 20
282.145563
 42
0.025018
  0
VERTEX
  8
0
 10
577.344986
 20
273.140959
 42
0.012685
  0
VERTEX
  8
0
 10
578.242856
 20
270.595856
 42
0.019583
  0
VERTEX
  8
0
 10
579.159103
 20
268.450782
 42
0.014655
  0
VERTEX
  8
0
 10
580.008267
 20
266.787958
 42
0.273890
  0
VERTEX
  8
0
 10
580.494515
 20
266.500000
 42
0.305380
  0
VERTEX
  8
0
 10
581.968121
 20
267.492586
 42
0.014248
  0
VERTEX
  8
0
 10
584.175947
 20
273.416326
 42
0.022339
  0
VERTEX
  8
0
 10
586.137262
 20
280.145846
 42
0.028498
  0
VERTEX
  8
0
 10
587.306272
 20
286.500000
 42
0.015027
  0
VERTEX
  8
0
 10
587.721469
 20
290.861567
 42
0.022971
  0
VERTEX
  8
0
 10
587.793355
 20
294.660029
 42
0.022031
  0
VERTEX
  8
0
 10
587.515545
 20
298.562556
 42
0.012441
  0
VERTEX
  8
0
 10
586.853413
 20
303.261061
 42
-0.009800
  0
VERTEX
  8
0
 10
586.349472
 20
306.705306
 42
-0.013667
  0
VERTEX
  8
0
 10
586.043698
 20
309.804267
 42
-0.010033
  0
VERTEX
  8
0
 10
585.912909
 20
312.368928
 42
-0.147164
  0
VERTEX
  8
0
 10
586.144024
 20
313.233036
 42
-0.364913
  0
VERTEX
  8
0
 10
586.755572
 20
313.433951
 42
-0.224431
  0
VERTEX
  8
0
 10
587.302435
 20
312.843250
 42
-0.022872
  0
VERTEX
  8
0
 10
587.981758
 20
310.285469
 42
-0.000988
  0
VERTEX
  8
0
 10
589.934982
 20
301.205521
 42
0.000000
  0
VERTEX
  8
0
 10
592.128195
 20
290.911043
 42
0.000000
  0
VERTEX
  8
0
 10
589.898215
 20
280.205521
 42
-0.009367
  0
VERTEX
  8
0
 10
588.934370
 20
275.976783
 42
-0.012006
  0
VERTEX
  8
0
 10
587.881746
 20
272.126132
 42
-0.009946
  0
VERTEX
  8
0
 10
586.866835
 20
268.965893
 42
-0.093941
  0
VERTEX
  8
0
 10
586.165104
 20
267.734503
 42
0.127174
  0
VERTEX
  8
0
 10
584.795525
 20
264.915909
 42
0.038801
  0
VERTEX
  8
0
 10
584.214941
 20
260.171147
 42
0.038513
  0
VERTEX
  8
0
 10
584.386982
 20
254.926721
 42
0.052774
  0
VERTEX
  8
0
 10
585.394823
 20
250.316658
 42
0.048764
  0
VERTEX
  8
0
 10
587.223989
 20
246.200031
 42
0.045967
  0
VERTEX
  8
0
 10
589.846722
 20
242.427058
 42
0.048773
  0
VERTEX
  8
0
 10
592.614819
 20
239.721332
 42
0.220154
  0
VERTEX
  8
0
 10
594.753022
 20
239.190953
 42
0.207473
  0
VERTEX
  8
0
 10
597.898423
 20
241.340041
 42
0.030097
  0
VERTEX
  8
0
 10
601.717978
 20
248.297172
 42
0.027753
  0
VERTEX
  8
0
 10
605.686121
 20
258.049964
 42
0.015276
  0
VERTEX
  8
0
 10
609.498352
 20
270.357485
 42
-0.011033
  0
VERTEX
  8
0
 10
610.987527
 20
275.313573
 42
-0.671990
  0
VERTEX
  8
0
 10
611.666390
 20
275.363547
 42
-0.149742
  0
VERTEX
  8
0
 10
611.960837
 20
273.580342
 42
-0.006558
  0
VERTEX
  8
0
 10
611.028916
 20
267.275375
 42
-0.023740
  0
VERTEX
  8
0
 10
609.463644
 20
259.834235
 42
-0.022752
  0
VERTEX
  8
0
 10
607.182182
 20
252.466655
 42
-0.022821
  0
VERTEX
  8
0
 10
604.248935
 20
245.359609
 42
-0.024268
  0
VERTEX
  8
0
 10
600.733419
 20
238.698072
 42
0.000000
  0
VERTEX
  8
0
 10
596.710369
 20
231.896145
 42
0.000000
  0
VERTEX
  8
0
 10
600.308080
 20
226.734301
 42
-0.007828
  0
VERTEX
  8
0
 10
601.660143
 20
224.728189
 42
-0.012704
  0
VERTEX
  8
0
 10
602.738063
 20
222.977849
 42
-0.006380
  0
VERTEX
  8
0
 10
603.571965
 20
221.500284
 42
-0.333180
  0
VERTEX
  8
0
 10
603.528256
 20
221.194923
 42
-0.283575
  0
VERTEX
  8
0
 10
602.479873
 20
220.946401
 42
-0.037594
  0
VERTEX
  8
0
 10
600.281355
 20
221.863085
 42
-0.036295
  0
VERTEX
  8
0
 10
597.697950
 20
223.421316
 42
-0.028536
  0
VERTEX
  8
0
 10
595.139455
 20
225.458144
 42
0.031932
  0
VERTEX
  8
0
 10
592.929092
 20
227.193449
 42
0.060417
  0
VERTEX
  8
0
 10
590.924031
 20
228.239968
 42
0.049726
  0
VERTEX
  8
0
 10
588.477247
 20
228.893448
 42
0.015587
  0
VERTEX
  8
0
 10
584.711619
 20
229.387453
 42
-0.028754
  0
VERTEX
  8
0
 10
578.667551
 20
230.342778
 42
-0.040252
  0
VERTEX
  8
0
 10
573.438094
 20
231.930210
 42
-0.038940
  0
VERTEX
  8
0
 10
568.403134
 20
234.381141
 42
-0.024644
  0
VERTEX
  8
0
 10
562.938836
 20
237.962244
 42
-0.034427
  0
VERTEX
  8
0
 10
557.542435
 20
242.491374
 42
-0.015218
  0
VERTEX
  8
0
 10
551.037813
 20
249.155411
 42
-0.012836
  0
VERTEX
  8
0
 10
545.159008
 20
255.896340
 42
-0.082234
  0
VERTEX
  8
0
 10
542.887147
 20
259.796825
 42
-0.037813
  0
VERTEX
  8
0
 10
542.080364
 20
262.522961
 42
-0.595525
  0
VERTEX
  8
0
 10
542.661488
 20
263.021134
 42
-0.123093
  0
VERTEX
  8
0
 10
544.219277
 20
261.931192
 42
-0.009834
  0
VERTEX
  8
0
 10
547.463853
 20
258.045067
 42
0.049238
  0
VERTEX
  8
0
 10
557.270163
 20
248.020635
 42
0.043118
  0
VERTEX
  8
0
 10
569.273157
 20
239.598990
 42
0.043815
  0
VERTEX
  8
0
 10
580.369909
 20
234.401103
 42
0.291859
  0
VERTEX
  8
0
 10
586.057846
 20
235.657846
 42
0.255951
  0
VERTEX
  8
0
 10
586.308799
 20
236.516785
 42
0.025429
  0
VERTEX
  8
0
 10
585.720887
 20
238.659933
 42
0.022772
  0
VERTEX
  8
0
 10
584.592881
 20
241.619711
 42
0.008828
  0
VERTEX
  8
0
 10
582.774512
 20
245.612886
 42
0.016429
  0
VERTEX
  8
0
 10
580.115390
 20
250.747867
 42
0.032921
  0
VERTEX
  8
0
 10
577.626229
 20
254.576346
 42
0.028591
  0
VERTEX
  8
0
 10
574.434252
 20
258.370007
 42
0.009602
  0
VERTEX
  8
0
 10
569.363670
 20
263.538374
 42
-0.010565
  0
VERTEX
  8
0
 10
565.065758
 20
267.936080
 42
-0.018050
  0
VERTEX
  8
0
 10
561.693497
 20
271.806711
 42
-0.021493
  0
VERTEX
  8
0
 10
559.097488
 20
275.310769
 42
-0.032687
  0
VERTEX
  8
0
 10
557.185109
 20
278.579964
 42
-0.025444
  0
VERTEX
  8
0
 10
554.842526
 20
283.924879
 42
-0.020041
  0
VERTEX
  8
0
 10
552.841506
 20
289.920688
 42
-0.020473
  0
VERTEX
  8
0
 10
551.429220
 20
295.664527
 42
-0.045348
  0
VERTEX
  8
0
 10
550.936614
 20
300.144345
 42
0.002205
  0
VERTEX
  8
0
 10
550.883356
 20
302.429924
 42
0.222504
  0
VERTEX
  8
0
 10
550.743532
 20
302.708226
 42
0.493193
  0
VERTEX
  8
0
 10
550.545385
 20
302.657834
 42
0.004281
  0
VERTEX
  8
0
 10
549.850662
 20
301.000000
 42
0.027187
  0
VERTEX
  8
0
 10
549.264160
 20
299.309267
 42
0.001827
  0
VERTEX
  8
0
 10
547.870766
 20
294.387500
 42
0.002624
  0
VERTEX
  8
0
 10
546.261028
 20
288.502140
 42
0.001962
  0
VERTEX
  8
0
 10
544.546534
 20
282.000000
 42
-0.001547
  0
VERTEX
  8
0
 10
542.850667
 20
275.546782
 42
-0.002190
  0
VERTEX
  8
0
 10
541.298190
 20
269.813870
 42
-0.001245
  0
VERTEX
  8
0
 10
539.954607
 20
264.984124
 42
-0.031212
  0
VERTEX
  8
0
 10
539.500751
 20
263.685515
 42
0.115157
  0
VERTEX
  8
0
 10
538.733821
 20
259.199512
 42
0.038311
  0
VERTEX
  8
0
 10
539.647383
 20
252.551549
 42
0.037904
  0
VERTEX
  8
0
 10
541.726813
 20
245.555671
 42
0.052856
  0
VERTEX
  8
0
 10
544.683571
 20
239.739279
 42
-0.024104
  0
VERTEX
  8
0
 10
545.566268
 20
238.224850
 42
-0.089815
  0
VERTEX
  8
0
 10
545.891373
 20
237.175258
 42
-0.122143
  0
VERTEX
  8
0
 10
545.779029
 20
236.257925
 42
-0.064118
  0
VERTEX
  8
0
 10
545.231758
 20
235.239279
 42
0.011232
  0
VERTEX
  8
0
 10
544.706269
 20
234.468867
 42
0.008199
  0
VERTEX
  8
0
 10
544.156120
 20
233.590864
 42
0.008291
  0
VERTEX
  8
0
 10
543.661906
 20
232.741077
 42
0.018050
  0
VERTEX
  8
0
 10
543.317591
 20
232.070045
 42
0.337602
  0
VERTEX
  8
0
 10
543.971856
 20
229.047734
 42
0.017752
  0
VERTEX
  8
0
 10
552.221617
 20
222.499288
 42
0.026015
  0
VERTEX
  8
0
 10
561.772473
 20
216.195145
 42
0.042801
  0
VERTEX
  8
0
 10
570.500000
 20
212.023869
 42
0.046751
  0
VERTEX
  8
0
 10
577.364613
 20
210.147179
 42
0.028931
  0
VERTEX
  8
0
 10
585.677268
 20
209.182059
 42
0.028715
  0
VERTEX
  8
0
 10
593.599245
 20
209.179485
 42
0.081057
  0
VERTEX
  8
0
 10
598.985098
 20
210.377361
 42
-0.019298
  0
VERTEX
  8
0
 10
601.143904
 20
211.145916
 42
-0.055721
  0
VERTEX
  8
0
 10
602.700131
 20
211.448598
 42
-0.075388
  0
VERTEX
  8
0
 10
603.999609
 20
211.357850
 42
-0.063719
  0
VERTEX
  8
0
 10
605.296275
 20
210.888232
 42
-0.045989
  0
VERTEX
  8
0
 10
607.456135
 20
209.513989
 42
-0.018995
  0
VERTEX
  8
0
 10
610.116682
 20
207.288654
 42
-0.012234
  0
VERTEX
  8
0
 10
612.573116
 20
204.958561
 42
-0.199412
  0
VERTEX
  8
0
 10
613.000000
 20
203.930766
 42
-0.304001
  0
VERTEX
  8
0
 10
612.764123
 20
203.578665
 42
-0.004877
  0
VERTEX
  8
0
 10
610.429688
 20
202.644774
 42
-0.010909
  0
VERTEX
  8
0
 10
607.604339
 20
201.616710
 42
-0.006789
  0
VERTEX
  8
0
 10
604.250000
 20
200.528950
 42
0.005761
  0
VERTEX
  8
0
 10
600.831245
 20
199.428058
 42
0.008031
  0
VERTEX
  8
0
 10
597.800616
 20
198.359030
 42
0.005248
  0
VERTEX
  8
0
 10
595.293519
 20
197.399075
 42
0.097200
  0
VERTEX
  8
0
 10
594.581884
 20
196.942977
 42
0.508046
  0
VERTEX
  8
0
 10
594.752644
 20
195.667475
 42
0.024077
  0
VERTEX
  8
0
 10
599.303733
 20
193.472196
 42
0.028654
  0
VERTEX
  8
0
 10
604.543167
 20
191.595199
 42
0.071196
  0
VERTEX
  8
0
 10
608.564788
 20
191.009769
 42
0.025780
  0
VERTEX
  8
0
 10
610.923016
 20
191.125760
 42
0.111990
  0
VERTEX
  8
0
 10
612.241692
 20
191.568247
 42
0.116395
  0
VERTEX
  8
0
 10
613.213794
 20
192.527115
 42
0.028892
  0
VERTEX
  8
0
 10
614.298609
 20
194.500000
 42
-0.053665
  0
VERTEX
  8
0
 10
615.741455
 20
196.841778
 42
-0.167479
  0
VERTEX
  8
0
 10
617.269068
 20
197.841517
 42
-0.222802
  0
VERTEX
  8
0
 10
618.790684
 20
197.547575
 42
-0.096114
  0
VERTEX
  8
0
 10
620.232073
 20
196.000000
 42
0.124515
  0
VERTEX
  8
0
 10
621.644625
 20
194.644490
 42
0.114890
  0
VERTEX
  8
0
 10
623.575176
 20
194.072045
 42
0.109038
  0
VERTEX
  8
0
 10
625.642636
 20
194.400890
 42
0.102973
  0
VERTEX
  8
0
 10
627.428571
 20
195.571429
 42
0.066253
  0
VERTEX
  8
0
 10
628.554528
 20
197.043106
 42
0.132375
  0
VERTEX
  8
0
 10
628.925038
 20
198.449733
 42
0.140480
  0
VERTEX
  8
0
 10
628.531193
 20
199.795030
 42
0.078697
  0
VERTEX
  8
0
 10
627.397330
 20
201.085209
 42
-0.041201
  0
VERTEX
  8
0
 10
626.563248
 20
201.902251
 42
-0.230595
  0
VERTEX
  8
0
 10
626.406973
 20
202.489477
 42
-0.157914
  0
VERTEX
  8
0
 10
626.755757
 20
203.118302
 42
-0.017623
  0
VERTEX
  8
0
 10
628.008114
 20
204.207653
 42
-0.072615
  0
VERTEX
  8
0
 10
629.441843
 20
205.058679
 42
-0.049384
  0
VERTEX
  8
0
 10
631.261658
 20
205.605735
 42
-0.035124
  0
VERTEX
  8
0
 10
633.709729
 20
205.908648
 42
-0.013223
  0
VERTEX
  8
0
 10
637.163323
 20
206.000000
 42
0.000000
  0
VERTEX
  8
0
 10
644.105079
 20
206.000000
 42
0.000000
  0
VERTEX
  8
0
 10
647.005810
 20
212.250000
 42
0.023836
  0
VERTEX
  8
0
 10
649.306535
 20
217.897344
 42
0.008550
  0
VERTEX
  8
0
 10
652.057669
 20
226.140925
 42
0.005980
  0
VERTEX
  8
0
 10
654.533952
 20
234.347669
 42
0.070389
  0
VERTEX
  8
0
 10
655.000000
 20
237.641804
 42
0.568327
  0
VERTEX
  8
0
 10
654.043998
 20
238.211211
 42
0.062484
  0
VERTEX
  8
0
 10
651.462605
 20
236.363543
 42
0.035618
  0
VERTEX
  8
0
 10
647.970823
 20
232.642007
 42
0.024959
  0
VERTEX
  8
0
 10
644.571514
 20
228.003638
 42
-0.015170
  0
VERTEX
  8
0
 10
642.621220
 20
225.230223
 42
-0.011323
  0
VERTEX
  8
0
 10
640.311429
 20
222.289825
 42
-0.011471
  0
VERTEX
  8
0
 10
638.006482
 20
219.616003
 42
-0.025430
  0
VERTEX
  8
0
 10
636.104262
 20
217.713160
 42
-0.038461
  0
VERTEX
  8
0
 10
632.436090
 20
214.879011
 42
-0.016962
  0
VERTEX
  8
0
 10
627.197933
 20
211.688865
 42
-0.007987
  0
VERTEX
  8
0
 10
621.852990
 20
208.788783
 42
-0.374093
  0
VERTEX
  8
0
 10
620.738443
 20
209.055388
 42
0.018127
  0
VERTEX
  8
0
 10
620.503513
 20
209.360413
 42
0.000667
  0
VERTEX
  8
0
 10
619.571162
 20
210.481179
 42
0.001214
  0
VERTEX
  8
0
 10
618.463574
 20
211.802452
 42
0.000852
  0
VERTEX
  8
0
 10
617.210497
 20
213.284796
 42
-0.039996
  0
VERTEX
  8
0
 10
614.966804
 20
216.404249
 42
-0.117782
  0
VERTEX
  8
0
 10
614.168197
 20
218.905073
 42
-0.128399
  0
VERTEX
  8
0
 10
614.617849
 20
221.365178
 42
-0.051792
  0
VERTEX
  8
0
 10
616.385779
 20
224.316722
 42
0.028049
  0
VERTEX
  8
0
 10
618.880192
 20
228.065825
 42
0.020791
  0
VERTEX
  8
0
 10
621.220587
 20
232.459726
 42
0.020648
  0
VERTEX
  8
0
 10
623.208326
 20
237.076548
 42
0.026065
  0
VERTEX
  8
0
 10
624.640646
 20
241.500000
 42
0.007856
  0
VERTEX
  8
0
 10
625.722543
 20
245.821371
 42
0.073839
  0
VERTEX
  8
0
 10
625.879320
 20
247.724473
 42
0.233714
  0
VERTEX
  8
0
 10
625.351502
 20
248.636985
 42
0.147866
  0
VERTEX
  8
0
 10
624.150823
 20
249.000000
 42
-0.207406
  0
VERTEX
  8
0
 10
623.151193
 20
249.433299
 42
-0.123079
  0
VERTEX
  8
0
 10
622.509046
 20
250.587140
 42
-0.043152
  0
VERTEX
  8
0
 10
622.083032
 20
252.973394
 42
-0.005323
  0
VERTEX
  8
0
 10
621.661215
 20
258.250000
 42
0.034959
  0
VERTEX
  8
0
 10
619.905016
 20
270.801701
 42
0.044817
  0
VERTEX
  8
0
 10
616.476367
 20
281.945627
 42
0.079558
  0
VERTEX
  8
0
 10
612.644906
 20
288.239537
 42
0.508722
  0
VERTEX
  8
0
 10
609.500000
 20
288.000000
 42
-0.151935
  0
VERTEX
  8
0
 10
608.667906
 20
287.276565
 42
-0.106843
  0
VERTEX
  8
0
 10
607.444102
 20
287.026939
 42
-0.132988
  0
VERTEX
  8
0
 10
606.407765
 20
287.320558
 42
-0.263423
  0
VERTEX
  8
0
 10
606.000000
 20
288.040825
 42
0.149077
  0
VERTEX
  8
0
 10
605.790035
 20
288.729390
 42
0.003711
  0
VERTEX
  8
0
 10
603.915669
 20
291.472846
 42
0.007677
  0
VERTEX
  8
0
 10
601.623517
 20
294.669019
 42
0.005116
  0
VERTEX
  8
0
 10
598.904405
 20
298.262716
 42
-0.007808
  0
VERTEX
  8
0
 10
596.006313
 20
302.136110
 42
-0.007317
  0
VERTEX
  8
0
 10
593.165916
 20
306.181954
 42
-0.007307
  0
VERTEX
  8
0
 10
590.751032
 20
309.845003
 42
-0.024809
  0
VERTEX
  8
0
 10
589.333149
 20
312.329264
 42
0.000000
  0
VERTEX
  8
0
 10
586.857488
 20
317.214745
 42
0.000000
  0
VERTEX
  8
0
 10
584.415500
 20
314.920617
 42
-0.027160
  0
VERTEX
  8
0
 10
583.256860
 20
313.944940
 42
-0.074047
  0
VERTEX
  8
0
 10
582.317481
 20
313.434493
 42
-0.121116
  0
VERTEX
  8
0
 10
581.558638
 20
313.351549
 42
-0.164770
  0
VERTEX
  8
0
 10
580.945685
 20
313.654315
 42
-0.109095
  0
VERTEX
  8
0
 10
579.351374
 20
316.152274
 42
-0.013209
  0
VERTEX
  8
0
 10
577.261681
 20
322.368070
 42
-0.016074
  0
VERTEX
  8
0
 10
575.519783
 20
328.767503
 42
-0.056440
  0
VERTEX
  8
0
 10
575.005779
 20
333.000000
 42
0.021361
  0
VERTEX
  8
0
 10
574.813987
 20
336.771831
 42
0.111664
  0
VERTEX
  8
0
 10
574.172033
 20
338.735739
 42
0.344079
  0
VERTEX
  8
0
 10
573.157464
 20
339.128881
 42
0.145243
  0
SEQEND
  0
POLYLINE
  8
0
 66
1
 70
1
  0
VERTEX
  8
0
 10
698.829422
 20
270.496089
 42
-0.149143
  0
VERTEX
  8
0
 10
698.395123
 20
270.264832
 42
-0.003800
  0
VERTEX
  8
0
 10
696.187768
 20
269.850395
 42
-0.007779
  0
VERTEX
  8
0
 10
693.562563
 20
269.420178
 42
-0.005191
  0
VERTEX
  8
0
 10
690.544175
 20
269.005601
 42
0.017487
  0
VERTEX
  8
0
 10
687.136410
 20
268.451865
 42
0.017707
  0
VERTEX
  8
0
 10
683.790053
 20
267.663163
 42
0.018746
  0
VERTEX
  8
0
 10
680.833618
 20
266.734473
 42
0.040583
  0
VERTEX
  8
0
 10
678.662589
 20
265.757197
 42
0.066774
  0
VERTEX
  8
0
 10
675.872485
 20
263.690904
 42
0.122419
  0
VERTEX
  8
0
 10
674.387209
 20
261.302662
 42
0.047520
  0
VERTEX
  8
0
 10
673.468858
 20
257.152683
 42
0.003455
  0
VERTEX
  8
0
 10
672.112200
 20
245.500000
 42
-0.002015
  0
VERTEX
  8
0
 10
671.646677
 20
241.398694
 42
-0.002080
  0
VERTEX
  8
0
 10
671.152869
 20
237.344783
 42
-0.002008
  0
VERTEX
  8
0
 10
670.696341
 20
233.836162
 42
-0.008913
  0
VERTEX
  8
0
 10
670.383014
 20
231.780114
 42
0.000000
  0
VERTEX
  8
0
 10
669.748089
 20
228.060227
 42
0.000000
  0
VERTEX
  8
0
 10
685.624044
 20
233.377953
 42
0.005299
  0
VERTEX
  8
0
 10
697.408524
 20
237.464635
 42
0.022632
  0
VERTEX
  8
0
 10
704.293701
 20
240.292117
 42
0.033696
  0
VERTEX
  8
0
 10
709.465601
 20
243.132924
 42
0.024815
  0
VERTEX
  8
0
 10
714.789853
 20
246.928123
 42
-0.004666
  0
VERTEX
  8
0
 10
716.802339
 20
248.488606
 42
-0.007081
  0
VERTEX
  8
0
 10
718.583483
 20
249.803886
 42
-0.003141
  0
VERTEX
  8
0
 10
720.117612
 20
250.889005
 42
-0.153524
  0
VERTEX
  8
0
 10
720.470582
 20
251.000000
 42
-0.482717
  0
VERTEX
  8
0
 10
720.921078
 20
250.432942
 42
-0.119667
  0
VERTEX
  8
0
 10
720.299467
 20
249.197946
 42
-0.037888
  0
VERTEX
  8
0
 10
718.179876
 20
247.056414
 42
-0.010670
  0
VERTEX
  8
0
 10
714.563037
 20
244.050160
 42
-0.031195
  0
VERTEX
  8
0
 10
708.506894
 20
239.819579
 42
-0.025214
  0
VERTEX
  8
0
 10
701.533469
 20
236.037344
 42
-0.019901
  0
VERTEX
  8
0
 10
692.754175
 20
232.255362
 42
-0.009043
  0
VERTEX
  8
0
 10
681.000000
 20
227.979700
 42
0.004914
  0
VERTEX
  8
0
 10
670.804567
 20
224.366092
 42
0.076202
  0
VERTEX
  8
0
 10
667.558958
 20
222.582211
 42
0.329876
  0
VERTEX
  8
0
 10
667.050706
 20
220.807067
 42
0.116313
  0
VERTEX
  8
0
 10
668.614003
 20
218.472237
 42
0.028467
  0
VERTEX
  8
0
 10
670.250050
 20
217.115629
 42
0.007103
  0
VERTEX
  8
0
 10
673.075676
 20
215.093400
 42
0.007235
  0
VERTEX
  8
0
 10
676.379863
 20
212.869114
 42
0.007216
  0
VERTEX
  8
0
 10
679.750000
 20
210.739310
 42
-0.003769
  0
VERTEX
  8
0
 10
682.912700
 20
208.770976
 42
-0.006052
  0
VERTEX
  8
0
 10
685.576563
 20
207.039604
 42
-0.001713
  0
VERTEX
  8
0
 10
687.854589
 20
205.508171
 42
-0.248829
  0
VERTEX
  8
0
 10
688.000000
 20
205.234071
 42
-0.416600
  0
VERTEX
  8
0
 10
687.846404
 20
205.081720
 42
-0.013819
  0
VERTEX
  8
0
 10
686.898438
 20
205.115653
 42
-0.018886
  0
VERTEX
  8
0
 10
685.688060
 20
205.238543
 42
-0.011062
  0
VERTEX
  8
0
 10
684.250000
 20
205.472202
 42
-0.045658
  0
VERTEX
  8
0
 10
680.483097
 20
206.532794
 42
-0.020607
  0
VERTEX
  8
0
 10
675.765914
 20
208.565729
 42
-0.020361
  0
VERTEX
  8
0
 10
671.303998
 20
210.938996
 42
-0.055295
  0
VERTEX
  8
0
 10
668.435549
 20
213.074812
 42
0.012622
  0
VERTEX
  8
0
 10
667.603723
 20
213.812161
 42
0.016954
  0
VERTEX
  8
0
 10
666.811922
 20
214.434476
 42
0.014107
  0
VERTEX
  8
0
 10
666.131438
 20
214.904024
 42
0.144949
  0
VERTEX
  8
0
 10
665.807326
 20
215.000000
 42
0.252099
  0
VERTEX
  8
0
 10
664.481203
 20
214.285993
 42
0.009433
  0
VERTEX
  8
0
 10
661.354468
 20
209.344111
 42
0.008532
  0
VERTEX
  8
0
 10
658.391692
 20
204.266404
 42
0.341934
  0
VERTEX
  8
0
 10
658.570005
 20
203.068903
 42
0.097143
  0
VERTEX
  8
0
 10
659.290153
 20
202.606946
 42
0.005295
  0
VERTEX
  8
0
 10
661.816463
 20
201.638431
 42
0.008073
  0
VERTEX
  8
0
 10
664.871001
 20
200.560144
 42
0.005796
  0
VERTEX
  8
0
 10
668.315827
 20
199.450526
 42
0.011230
  0
VERTEX
  8
0
 10
673.334826
 20
198.020511
 42
0.030928
  0
VERTEX
  8
0
 10
676.944048
 20
197.314137
 42
0.033953
  0
VERTEX
  8
0
 10
680.418931
 20
197.092994
 42
0.016029
  0
VERTEX
  8
0
 10
684.912274
 20
197.256533
 42
0.026843
  0
VERTEX
  8
0
 10
691.141074
 20
198.020919
 42
0.065207
  0
VERTEX
  8
0
 10
695.548072
 20
199.413237
 42
0.089048
  0
VERTEX
  8
0
 10
698.585900
 20
201.553961
 42
0.096176
  0
VERTEX
  8
0
 10
700.592198
 20
204.566418
 42
-0.033242
  0
VERTEX
  8
0
 10
701.348514
 20
206.084394
 42
-0.065264
  0
VERTEX
  8
0
 10
702.173440
 20
207.149405
 42
-0.085243
  0
VERTEX
  8
0
 10
703.073473
 20
207.780250
 42
-0.110766
  0
VERTEX
  8
0
 10
704.053258
 20
208.000000
 42
0.131454
  0
VERTEX
  8
0
 10
709.037206
 20
209.333357
 42
0.036850
  0
VERTEX
  8
0
 10
715.765031
 20
213.901464
 42
0.036573
  0
VERTEX
  8
0
 10
722.458076
 20
220.052988
 42
0.045669
  0
VERTEX
  8
0
 10
727.651965
 20
226.701963
 42
0.005114
  0
VERTEX
  8
0
 10
728.934841
 20
228.740736
 42
0.007521
  0
VERTEX
  8
0
 10
730.016515
 20
230.560176
 42
0.003975
  0
VERTEX
  8
0
 10
730.891900
 20
232.112809
 42
0.127035
  0
VERTEX
  8
0
 10
731.000000
 20
232.531419
 42
0.380555
  0
VERTEX
  8
0
 10
730.818199
 20
232.735689
 42
0.034190
  0
VERTEX
  8
0
 10
730.074649
 20
232.771344
 42
0.031029
  0
VERTEX
  8
0
 10
729.057863
 20
232.687292
 42
0.017924
  0
VERTEX
  8
0
 10
727.849868
 20
232.467025
 42
-0.012391
  0
VERTEX
  8
0
 10
726.078939
 20
232.123826
 42
-0.140086
  0
VERTEX
  8
0
 10
725.375948
 20
232.202691
 42
-0.336328
  0
VERTEX
  8
0
 10
725.139622
 20
232.604347
 42
-0.062419
  0
VERTEX
  8
0
 10
725.358331
 20
233.491413
 42
0.018960
  0
VERTEX
  8
0
 10
725.758455
 20
234.665345
 42
0.001094
  0
VERTEX
  8
0
 10
726.839774
 20
238.310359
 42
0.001664
  0
VERTEX
  8
0
 10
728.103465
 20
242.657943
 42
0.001222
  0
VERTEX
  8
0
 10
729.476705
 20
247.486251
 42
-0.003936
  0
VERTEX
  8
0
 10
730.953047
 20
252.572009
 42
-0.003788
  0
VERTEX
  8
0
 10
732.527770
 20
257.699471
 42
-0.003748
  0
VERTEX
  8
0
 10
733.983635
 20
262.197222
 42
-0.013732
  0
VERTEX
  8
0
 10
735.004896
 20
265.012421
 42
0.007322
  0
VERTEX
  8
0
 10
735.773174
 20
267.048460
 42
0.011561
  0
VERTEX
  8
0
 10
736.365754
 20
268.818499
 42
0.005652
  0
VERTEX
  8
0
 10
736.808501
 20
270.309623
 42
0.272114
  0
VERTEX
  8
0
 10
736.733025
 20
270.600308
 42
0.325202
  0
VERTEX
  8
0
 10
736.466581
 20
270.642369
 42
0.010186
  0
VERTEX
  8
0
 10
735.438311
 20
270.090423
 42
0.016257
  0
VERTEX
  8
0
 10
734.203858
 20
269.341175
 42
0.010097
  0
VERTEX
  8
0
 10
732.803330
 20
268.386686
 42
-0.085947
  0
VERTEX
  8
0
 10
728.541475
 20
266.344051
 42
-0.031090
  0
VERTEX
  8
0
 10
721.957843
 20
264.918042
 42
-0.030067
  0
VERTEX
  8
0
 10
714.493006
 20
264.236652
 42
-0.033803
  0
VERTEX
  8
0
 10
707.290061
 20
264.500884
 42
0.000000
  0
VERTEX
  8
0
 10
701.080122
 20
265.150608
 42
0.000000
  0
VERTEX
  8
0
 10
701.665061
 20
268.075304
 42
0.024190
  0
VERTEX
  8
0
 10
701.877036
 20
269.487165
 42
0.098025
  0
VERTEX
  8
0
 10
701.795123
 20
270.348899
 42
0.185489
  0
VERTEX
  8
0
 10
701.431316
 20
270.820566
 42
0.137604
  0
VERTEX
  8
0
 10
700.791667
 20
271.000000
 42
0.031176
  0
VERTEX
  8
0
 10
700.196417
 20
270.962848
 42
0.031687
  0
VERTEX
  8
0
 10
699.613695
 20
270.851976
 42
0.033400
  0
VERTEX
  8
0
 10
699.122311
 20
270.690147
 42
0.100455
  0
SEQEND
  0
POLYLINE
  8
0
 66
1
 70
1
  0
VERTEX
  8
0
 10
693.225266
 20
260.307575
 42
0.042373
  0
VERTEX
  8
0
 10
692.228751
 20
258.616897
 42
0.007726
  0
VERTEX
  8
0
 10
690.704178
 20
255.314071
 42
0.008264
  0
VERTEX
  8
0
 10
689.038955
 20
251.380676
 42
0.007418
  0
VERTEX
  8
0
 10
687.441402
 20
247.250964
 42
-0.012254
  0
VERTEX
  8
0
 10
684.758894
 20
240.511053
 42
-0.039773
  0
VERTEX
  8
0
 10
682.526714
 20
236.252541
 42
-0.065392
  0
VERTEX
  8
0
 10
680.485289
 20
233.793642
 42
-0.189030
  0
VERTEX
  8
0
 10
678.461045
 20
233.000000
 42
-0.016946
  0
VERTEX
  8
0
 10
677.900973
 20
233.018987
 42
-0.027620
  0
VERTEX
  8
0
 10
677.429182
 20
233.077313
 42
-0.026574
  0
VERTEX
  8
0
 10
677.077154
 20
233.160244
 42
-0.333138
  0
VERTEX
  8
0
 10
677.000000
 20
233.263191
 42
-0.096552
  0
VERTEX
  8
0
 10
677.039607
 20
233.466388
 42
-0.000146
  0
VERTEX
  8
0
 10
678.460685
 20
236.970195
 42
-0.001180
  0
VERTEX
  8
0
 10
680.066156
 20
240.898695
 42
-0.000727
  0
VERTEX
  8
0
 10
681.972546
 20
245.513191
 42
-0.007953
  0
VERTEX
  8
0
 10
684.599566
 20
251.571765
 42
-0.023033
  0
VERTEX
  8
0
 10
686.673399
 20
255.643286
 42
-0.032993
  0
VERTEX
  8
0
 10
688.585221
 20
258.541578
 42
-0.050086
  0
VERTEX
  8
0
 10
690.639186
 20
260.750026
 42
-0.011092
  0
VERTEX
  8
0
 10
693.512316
 20
263.166852
 42
-0.214873
  0
VERTEX
  8
0
 10
694.611366
 20
263.452009
 42
-0.528164
  0
VERTEX
  8
0
 10
694.888431
 20
262.847084
 42
-0.018739
  0
SEQEND
  0
POLYLINE
  8
0
 66
1
 70
1
  0
VERTEX
  8
0
 10
689.622882
 20
225.782138
 42
0.031370
  0
VERTEX
  8
0
 10
692.558533
 20
224.663466
 42
0.037104
  0
VERTEX
  8
0
 10
695.452002
 20
223.994570
 42
0.027959
  0
VERTEX
  8
0
 10
699.010370
 20
223.647942
 42
0.009474
  0
VERTEX
  8
0
 10
704.212909
 20
223.532138
 42
-0.003467
  0
VERTEX
  8
0
 10
709.878073
 20
223.474106
 42
-0.041618
  0
VERTEX
  8
0
 10
712.050384
 20
223.255343
 42
-0.279733
  0
VERTEX
  8
0
 10
712.618282
 20
222.748063
 42
-0.277063
  0
VERTEX
  8
0
 10
712.433262
 20
222.006068
 42
-0.167951
  0
VERTEX
  8
0
 10
709.412056
 20
220.535227
 42
-0.025707
  0
VERTEX
  8
0
 10
702.638571
 20
220.068041
 42
-0.029626
  0
VERTEX
  8
0
 10
695.440098
 20
220.368929
 42
-0.061123
  0
VERTEX
  8
0
 10
689.954310
 20
221.613544
 42
-0.020715
  0
VERTEX
  8
0
 10
686.438742
 20
223.044772
 42
-0.065428
  0
VERTEX
  8
0
 10
684.286378
 20
224.390351
 42
-0.129386
  0
VERTEX
  8
0
 10
683.353856
 20
225.685406
 42
-0.234222
  0
VERTEX
  8
0
 10
683.472927
 20
226.956195
 42
-0.080997
  0
VERTEX
  8
0
 10
684.097720
 20
227.675473
 42
-0.224295
  0
VERTEX
  8
0
 10
684.730562
 20
227.838853
 42
-0.057522
  0
VERTEX
  8
0
 10
685.782086
 20
227.509480
 42
-0.002081
  0
SEQEND
  0
POLYLINE
  8
0
 66
1
 70
1
  0
VERTEX
  8
0
 10
561.500000
 20
192.174272
 42
0.029461
  0
VERTEX
  8
0
 10
552.853617
 20
188.564761
 42
0.046375
  0
VERTEX
  8
0
 10
545.987193
 20
184.382694
 42
0.063788
  0
VERTEX
  8
0
 10
541.892712
 20
180.435056
 42
0.356264
  0
VERTEX
  8
0
 10
541.916053
 20
177.601150
 42
-0.076169
  0
VERTEX
  8
0
 10
542.435348
 20
176.736169
 42
-0.111895
  0
VERTEX
  8
0
 10
542.581138
 20
175.864775
 42
-0.080281
  0
VERTEX
  8
0
 10
542.348472
 20
174.811013
 42
-0.024583
  0
VERTEX
  8
0
 10
541.671475
 20
173.321835
 42
0.036611
  0
VERTEX
  8
0
 10
539.926773
 20
169.225507
 42
0.017359
  0
VERTEX
  8
0
 10
538.258981
 20
163.731910
 42
0.015519
  0
VERTEX
  8
0
 10
536.745990
 20
157.240764
 42
0.011720
  0
VERTEX
  8
0
 10
535.474696
 20
150.030516
 42
0.004418
  0
VERTEX
  8
0
 10
534.694832
 20
144.585187
 42
0.034382
  0
VERTEX
  8
0
 10
534.529090
 20
142.026168
 42
0.086783
  0
VERTEX
  8
0
 10
534.786658
 20
140.587795
 42
0.179457
  0
VERTEX
  8
0
 10
535.516504
 20
139.730826
 42
-0.099153
  0
VERTEX
  8
0
 10
536.084546
 20
139.244683
 42
-0.055684
  0
VERTEX
  8
0
 10
536.564223
 20
138.469320
 42
-0.052443
  0
VERTEX
  8
0
 10
536.889814
 20
137.542924
 42
-0.058362
  0
VERTEX
  8
0
 10
537.000000
 20
136.602159
 42
0.098283
  0
VERTEX
  8
0
 10
537.304556
 20
135.067746
 42
0.004190
  0
VERTEX
  8
0
 10
539.466975
 20
129.956778
 42
0.007047
  0
VERTEX
  8
0
 10
542.180719
 20
123.924222
 42
0.004945
  0
VERTEX
  8
0
 10
545.398212
 20
117.207213
 42
-0.000839
  0
VERTEX
  8
0
 10
548.645857
 20
110.567755
 42
-0.001270
  0
VERTEX
  8
0
 10
551.447823
 20
104.777698
 42
-0.000471
  0
VERTEX
  8
0
 10
553.842596
 20
99.784810
 42
-0.031143
  0
VERTEX
  8
0
 10
554.199400
 20
98.901801
 42
0.364258
  0
VERTEX
  8
0
 10
554.839974
 20
98.508703
 42
0.026859
  0
VERTEX
  8
0
 10
557.012767
 20
98.953534
 42
0.021791
  0
VERTEX
  8
0
 10
560.247798
 20
99.951470
 42
0.006645
  0
VERTEX
  8
0
 10
565.051188
 20
101.738022
 42
-0.001866
  0
VERTEX
  8
0
 10
569.235124
 20
103.339862
 42
-0.002272
  0
VERTEX
  8
0
 10
573.165036
 20
104.807275
 42
-0.001908
  0
VERTEX
  8
0
 10
576.480688
 20
106.013836
 42
-0.015923
  0
VERTEX
  8
0
 10
578.000000
 20
106.506120
 42
0.052073
  0
VERTEX
  8
0
 10
579.299590
 20
107.033580
 42
0.012631
  0
VERTEX
  8
0
 10
581.319384
 20
108.176311
 42
0.012820
  0
VERTEX
  8
0
 10
583.580938
 20
109.612424
 42
0.012436
  0
VERTEX
  8
0
 10
585.789392
 20
111.176671
 42
0.000000
  0
VERTEX
  8
0
 10
591.078785
 20
115.124273
 42
0.000000
  0
VERTEX
  8
0
 10
592.882433
 20
112.896861
 42
0.000000
  0
VERTEX
  8
0
 10
594.686082
 20
110.669450
 42
0.000000
  0
VERTEX
  8
0
 10
599.506577
 20
115.084725
 42
0.034533
  0
VERTEX
  8
0
 10
603.673816
 20
119.467394
 42
0.023474
  0
VERTEX
  8
0
 10
607.809011
 20
124.972641
 42
0.023679
  0
VERTEX
  8
0
 10
611.242269
 20
130.573183
 42
0.052923
  0
VERTEX
  8
0
 10
613.170047
 20
135.173231
 42
-0.036406
  0
VERTEX
  8
0
 10
614.093129
 20
137.597070
 42
-0.151336
  0
VERTEX
  8
0
 10
615.132358
 20
138.741983
 42
-0.239302
  0
VERTEX
  8
0
 10
616.330040
 20
138.818242
 42
-0.095089
  0
VERTEX
  8
0
 10
617.732783
 20
137.867217
 42
0.398121
  0
VERTEX
  8
0
 10
620.563476
 20
137.788995
 42
0.108753
  0
VERTEX
  8
0
 10
623.433396
 20
141.775212
 42
0.059625
  0
VERTEX
  8
0
 10
625.630412
 20
149.185253
 42
0.039938
  0
VERTEX
  8
0
 10
626.419602
 20
158.000000
 42
0.030652
  0
VERTEX
  8
0
 10
626.098475
 20
164.190543
 42
0.032821
  0
VERTEX
  8
0
 10
625.021347
 20
170.152769
 42
0.030009
  0
VERTEX
  8
0
 10
623.530688
 20
174.898452
 42
0.311103
  0
VERTEX
  8
0
 10
621.931643
 20
176.000000
 42
0.064821
  0
VERTEX
  8
0
 10
619.406416
 20
175.671245
 42
0.022755
  0
VERTEX
  8
0
 10
615.910525
 20
174.572875
 42
0.014629
  0
VERTEX
  8
0
 10
612.568691
 20
173.241277
 42
0.299056
  0
VERTEX
  8
0
 10
612.000000
 20
172.375501
 42
0.070431
  0
VERTEX
  8
0
 10
612.100301
 20
171.666981
 42
0.009822
  0
VERTEX
  8
0
 10
612.540531
 20
170.248366
 42
0.011072
  0
VERTEX
  8
0
 10
613.135556
 20
168.580531
 42
0.009192
  0
VERTEX
  8
0
 10
613.840106
 20
166.832905
 42
-0.021000
  0
VERTEX
  8
0
 10
615.138349
 20
163.379713
 42
-0.019389
  0
VERTEX
  8
0
 10
616.181171
 20
159.737273
 42
-0.011610
  0
VERTEX
  8
0
 10
616.896267
 20
156.491423
 42
-0.472133
  0
VERTEX
  8
0
 10
616.491846
 20
156.000000
 42
-0.260046
  0
VERTEX
  8
0
 10
616.235753
 20
156.142852
 42
-0.004605
  0
VERTEX
  8
0
 10
615.389435
 20
157.542188
 42
-0.010264
  0
VERTEX
  8
0
 10
614.431705
 20
159.237608
 42
-0.006505
  0
VERTEX
  8
0
 10
613.382323
 20
161.250000
 42
0.009438
  0
VERTEX
  8
0
 10
612.155441
 20
163.569499
 42
0.006122
  0
VERTEX
  8
0
 10
610.653947
 20
166.206250
 42
0.006155
  0
VERTEX
  8
0
 10
609.123961
 20
168.745927
 42
0.011609
  0
VERTEX
  8
0
 10
607.817436
 20
170.750000
 42
0.019082
  0
VERTEX
  8
0
 10
606.025346
 20
173.161441
 42
0.086918
  0
VERTEX
  8
0
 10
604.716207
 20
174.309938
 42
0.103817
  0
VERTEX
  8
0
 10
603.212103
 20
174.841714
 42
0.033248
  0
VERTEX
  8
0
 10
600.834312
 20
175.000000
 42
0.038780
  0
VERTEX
  8
0
 10
598.547003
 20
174.822331
 42
0.074926
  0
VERTEX
  8
0
 10
596.799770
 20
174.273006
 42
0.062575
  0
VERTEX
  8
0
 10
595.097447
 20
173.159716
 42
0.020313
  0
VERTEX
  8
0
 10
592.882353
 20
171.117647
 42
0.041589
  0
VERTEX
  8
0
 10
590.213238
 20
167.963306
 42
0.127526
  0
VERTEX
  8
0
 10
589.220638
 20
165.369243
 42
0.115027
  0
VERTEX
  8
0
 10
589.563540
 20
162.458730
 42
0.030685
  0
VERTEX
  8
0
 10
591.426342
 20
158.145358
 42
-0.033358
  0
VERTEX
  8
0
 10
594.039215
 20
152.005291
 42
-0.031513
  0
VERTEX
  8
0
 10
595.870574
 20
145.455319
 42
-0.029517
  0
VERTEX
  8
0
 10
596.952214
 20
138.328225
 42
-0.022615
  0
VERTEX
  8
0
 10
597.317597
 20
130.455328
 42
-0.005311
  0
VERTEX
  8
0
 10
597.221687
 20
120.325230
 42
-0.210504
  0
VERTEX
  8
0
 10
596.301423
 20
118.345035
 42
-0.617199
  0
VERTEX
  8
0
 10
595.322591
 20
118.741830
 42
-0.006396
  0
VERTEX
  8
0
 10
594.692015
 20
128.148759
 42
0.009901
  0
VERTEX
  8
0
 10
594.343376
 20
132.855146
 42
0.009501
  0
VERTEX
  8
0
 10
593.805058
 20
137.609511
 42
0.009472
  0
VERTEX
  8
0
 10
593.171369
 20
141.782896
 42
0.033525
  0
VERTEX
  8
0
 10
592.536437
 20
144.415533
 42
0.028998
  0
VERTEX
  8
0
 10
590.905160
 20
148.727640
 42
0.021355
  0
VERTEX
  8
0
 10
588.626651
 20
153.299546
 42
0.013666
  0
VERTEX
  8
0
 10
586.259931
 20
157.316958
 42
0.258297
  0
VERTEX
  8
0
 10
585.025940
 20
158.000000
 42
0.228678
  0
VERTEX
  8
0
 10
583.896702
 20
157.455039
 42
0.020531
  0
VERTEX
  8
0
 10
581.990916
 20
154.843900
 42
0.019778
  0
VERTEX
  8
0
 10
579.623165
 20
150.980996
 42
0.007833
  0
VERTEX
  8
0
 10
576.666721
 20
145.500000
 42
0.007604
  0
VERTEX
  8
0
 10
574.391942
 20
140.952115
 42
0.065356
  0
VERTEX
  8
0
 10
573.682786
 20
138.798188
 42
0.095848
  0
VERTEX
  8
0
 10
573.689719
 20
136.859808
 42
0.024757
  0
VERTEX
  8
0
 10
574.448915
 20
133.812843
 42
-0.031011
  0
VERTEX
  8
0
 10
575.712969
 20
128.455115
 42
-0.019608
  0
VERTEX
  8
0
 10
576.548702
 20
122.086490
 42
-0.011307
  0
VERTEX
  8
0
 10
576.962916
 20
116.062960
 42
-0.272260
  0
VERTEX
  8
0
 10
576.204927
 20
114.626652
 42
-0.347827
  0
VERTEX
  8
0
 10
575.743376
 20
114.680387
 42
-0.086779
  0
VERTEX
  8
0
 10
575.275669
 20
115.346310
 42
-0.049340
  0
VERTEX
  8
0
 10
574.845192
 20
116.561043
 42
-0.021305
  0
VERTEX
  8
0
 10
574.504790
 20
118.245751
 42
0.014828
  0
VERTEX
  8
0
 10
573.609698
 20
122.991477
 42
0.028320
  0
VERTEX
  8
0
 10
572.565059
 20
126.726788
 42
0.030481
  0
VERTEX
  8
0
 10
571.497020
 20
129.323115
 42
0.370797
  0
VERTEX
  8
0
 10
570.583385
 20
129.719586
 42
0.178476
  0
VERTEX
  8
0
 10
569.976120
 20
129.254127
 42
0.004654
  0
VERTEX
  8
0
 10
568.149236
 20
126.302874
 42
0.009263
  0
VERTEX
  8
0
 10
566.074099
 20
122.732214
 42
0.006132
  0
VERTEX
  8
0
 10
563.818268
 20
118.560060
 42
-0.001444
  0
VERTEX
  8
0
 10
557.283378
 20
106.198181
 42
-0.482319
  0
VERTEX
  8
0
 10
556.353765
 20
106.026319
 42
-0.311191
  0
VERTEX
  8
0
 10
556.041897
 20
107.240509
 42
-0.001281
  0
VERTEX
  8
0
 10
561.105622
 20
120.920084
 42
0.003876
  0
VERTEX
  8
0
 10
562.570234
 20
124.940687
 42
0.006276
  0
VERTEX
  8
0
 10
563.746068
 20
128.384399
 42
0.001729
  0
VERTEX
  8
0
 10
564.713787
 20
131.374301
 42
0.280789
  0
VERTEX
  8
0
 10
564.635271
 20
131.698062
 42
0.300176
  0
VERTEX
  8
0
 10
563.630270
 20
131.904048
 42
0.018640
  0
VERTEX
  8
0
 10
560.713748
 20
130.607374
 42
0.024202
  0
VERTEX
  8
0
 10
557.339705
 20
128.746477
 42
0.020206
  0
VERTEX
  8
0
 10
553.945288
 20
126.459837
 42
-0.007556
  0
VERTEX
  8
0
 10
552.081234
 20
125.134369
 42
-0.010707
  0
VERTEX
  8
0
 10
550.380646
 20
124.016327
 42
-0.007060
  0
VERTEX
  8
0
 10
548.935135
 20
123.137901
 42
-0.133774
  0
VERTEX
  8
0
 10
548.428932
 20
123.000000
 42
-0.656581
  0
VERTEX
  8
0
 10
548.138365
 20
123.670700
 42
-0.018066
  0
VERTEX
  8
0
 10
551.165703
 20
126.674607
 42
-0.019833
  0
VERTEX
  8
0
 10
555.220418
 20
130.129722
 42
-0.021660
  0
VERTEX
  8
0
 10
559.422050
 20
133.146797
 42
0.025982
  0
VERTEX
  8
0
 10
562.959980
 20
135.733906
 42
0.054932
  0
VERTEX
  8
0
 10
565.341136
 20
138.152018
 42
0.037836
  0
VERTEX
  8
0
 10
567.630668
 20
141.554483
 42
0.007105
  0
VERTEX
  8
0
 10
571.247162
 20
148.135885
 42
0.008250
  0
VERTEX
  8
0
 10
575.362525
 20
156.202551
 42
0.114772
  0
VERTEX
  8
0
 10
576.092046
 20
159.365167
 42
0.336617
  0
VERTEX
  8
0
 10
574.893396
 20
160.937844
 42
0.070057
  0
VERTEX
  8
0
 10
571.222727
 20
161.418702
 42
0.077151
  0
VERTEX
  8
0
 10
567.366562
 20
160.782047
 42
0.028042
  0
VERTEX
  8
0
 10
562.192859
 20
158.753366
 42
0.022790
  0
VERTEX
  8
0
 10
555.868720
 20
155.498398
 42
0.012005
  0
VERTEX
  8
0
 10
548.311967
 20
150.918060
 42
0.000000
  0
VERTEX
  8
0
 10
540.500000
 20
145.922731
 42
0.000000
  0
VERTEX
  8
0
 10
547.000000
 20
151.919054
 42
-0.025359
  0
VERTEX
  8
0
 10
553.840258
 20
157.615423
 42
-0.045853
  0
VERTEX
  8
0
 10
560.041028
 20
161.434710
 42
-0.052421
  0
VERTEX
  8
0
 10
566.217553
 20
163.729063
 42
-0.047512
  0
VERTEX
  8
0
 10
572.945268
 20
164.786959
 42
0.011093
  0
VERTEX
  8
0
 10
575.928742
 20
165.035755
 42
0.014463
  0
VERTEX
  8
0
 10
578.643738
 20
165.402607
 42
0.012056
  0
VERTEX
  8
0
 10
580.870425
 20
165.824711
 42
0.116063
  0
VERTEX
  8
0
 10
581.735542
 20
166.234687
 42
0.047495
  0
VERTEX
  8
0
 10
582.409223
 20
166.886053
 42
0.006844
  0
VERTEX
  8
0
 10
583.633958
 20
168.359052
 42
0.007713
  0
VERTEX
  8
0
 10
585.035622
 20
170.148336
 42
0.006526
  0
VERTEX
  8
0
 10
586.463217
 20
172.081685
 42
0.000000
  0
VERTEX
  8
0
 10
589.955350
 20
176.942480
 42
0.000000
  0
VERTEX
  8
0
 10
585.458900
 20
180.375775
 42
0.000000
  0
VERTEX
  8
0
 10
580.962450
 20
183.809069
 42
0.000000
  0
VERTEX
  8
0
 10
575.731225
 20
182.342569
 42
-0.042981
  0
VERTEX
  8
0
 10
570.090028
 20
181.272796
 42
-0.007866
  0
VERTEX
  8
0
 10
559.502107
 20
180.362458
 42
-0.003448
  0
VERTEX
  8
0
 10
548.464078
 20
179.664595
 42
-0.675889
  0
VERTEX
  8
0
 10
548.116837
 20
180.405411
 42
-0.149494
  0
VERTEX
  8
0
 10
548.666940
 20
180.723017
 42
-0.002962
  0
VERTEX
  8
0
 10
551.862148
 20
181.440512
 42
-0.006790
  0
VERTEX
  8
0
 10
555.638079
 20
182.211382
 42
-0.004472
  0
VERTEX
  8
0
 10
560.000637
 20
183.000109
 42
0.006246
  0
VERTEX
  8
0
 10
568.325389
 20
184.535698
 42
0.020652
  0
VERTEX
  8
0
 10
573.745507
 20
185.840287
 42
0.024563
  0
VERTEX
  8
0
 10
577.252042
 20
187.028116
 42
0.307985
  0
VERTEX
  8
0
 10
578.000000
 20
188.127212
 42
0.079570
  0
VERTEX
  8
0
 10
577.912212
 20
188.675358
 42
0.013336
  0
VERTEX
  8
0
 10
577.551831
 20
189.680426
 42
0.014311
  0
VERTEX
  8
0
 10
577.058427
 20
190.848823
 42
0.012264
  0
VERTEX
  8
0
 10
576.474320
 20
192.049660
 42
0.122475
  0
VERTEX
  8
0
 10
574.646458
 20
194.129577
 42
0.150560
  0
VERTEX
  8
0
 10
572.193942
 20
194.907612
 42
0.073212
  0
VERTEX
  8
0
 10
568.370425
 20
194.377205
 42
0.013139
  0
SEQEND
  0
POLYLINE
  8
0
 66
1
 70
1
  0
VERTEX
  8
0
 10
637.500000
 20
180.835550
 42
0.002533
  0
VERTEX
  8
0
 10
636.711083
 20
180.384323
 42
0.003319
  0
VERTEX
  8
0
 10
635.995209
 20
179.963680
 42
0.002443
  0
VERTEX
  8
0
 10
635.399703
 20
179.604470
 42
0.031145
  0
VERTEX
  8
0
 10
635.185818
 20
179.455005
 42
0.338390
  0
VERTEX
  8
0
 10
635.126568
 20
179.219042
 42
0.002461
  0
VERTEX
  8
0
 10
635.988886
 20
177.243120
 42
0.007778
  0
VERTEX
  8
0
 10
637.045693
 20
174.950769
 42
0.004746
  0
VERTEX
  8
0
 10
638.360859
 20
172.276297
 42
-0.028772
  0
VERTEX
  8
0
 10
643.889652
 20
159.520372
 42
-0.022766
  0
VERTEX
  8
0
 10
648.418252
 20
145.182629
 42
-0.020763
  0
VERTEX
  8
0
 10
651.985487
 20
129.146857
 42
-0.015623
  0
VERTEX
  8
0
 10
654.616361
 20
111.271126
 42
-0.021613
  0
VERTEX
  8
0
 10
655.455400
 20
99.583041
 42
-0.024029
  0
VERTEX
  8
0
 10
655.233655
 20
88.274645
 42
-0.023957
  0
VERTEX
  8
0
 10
653.925983
 20
77.009162
 42
-0.021225
  0
VERTEX
  8
0
 10
651.511505
 20
65.449429
 42
-0.041196
  0
VERTEX
  8
0
 10
645.648742
 20
48.372070
 42
-0.046542
  0
VERTEX
  8
0
 10
637.247706
 20
33.213194
 42
-0.049899
  0
VERTEX
  8
0
 10
626.836469
 20
20.822232
 42
-0.065250
  0
VERTEX
  8
0
 10
614.997377
 20
11.971158
 42
0.007461
  0
VERTEX
  8
0
 10
612.435823
 20
10.482044
 42
0.006895
  0
VERTEX
  8
0
 10
609.850907
 20
8.878335
 42
0.006900
  0
VERTEX
  8
0
 10
607.588536
 20
7.386768
 42
0.022747
  0
VERTEX
  8
0
 10
606.157924
 20
6.316792
 42
0.000000
  0
VERTEX
  8
0
 10
603.500000
 20
4.133583
 42
0.000000
  0
VERTEX
  8
0
 10
607.500000
 20
2.431119
 42
0.021229
  0
VERTEX
  8
0
 10
609.324056
 20
1.744662
 42
0.013319
  0
VERTEX
  8
0
 10
611.508053
 20
1.090899
 42
0.013366
  0
VERTEX
  8
0
 10
613.696354
 20
0.561211
 42
0.023693
  0
VERTEX
  8
0
 10
615.527413
 20
0.259364
 42
0.041640
  0
VERTEX
  8
0
 10
617.941510
 20
0.180229
 42
0.083799
  0
VERTEX
  8
0
 10
619.796481
 20
0.590501
 42
0.058533
  0
VERTEX
  8
0
 10
621.809598
 20
1.695008
 42
0.012305
  0
VERTEX
  8
0
 10
625.027413
 20
4.107619
 42
0.031951
  0
VERTEX
  8
0
 10
633.561549
 20
11.773325
 42
0.028825
  0
VERTEX
  8
0
 10
641.367802
 20
20.719856
 42
0.028950
  0
VERTEX
  8
0
 10
648.059250
 20
30.460531
 42
0.033037
  0
VERTEX
  8
0
 10
653.260238
 20
40.500000
 42
0.036651
  0
VERTEX
  8
0
 10
657.246018
 20
51.815590
 42
0.022484
  0
VERTEX
  8
0
 10
660.339090
 20
65.619030
 42
0.021460
  0
VERTEX
  8
0
 10
662.333596
 20
80.576405
 42
0.022416
  0
VERTEX
  8
0
 10
663.000000
 20
95.433264
 42
0.028038
  0
VERTEX
  8
0
 10
661.834581
 20
116.199829
 42
0.024877
  0
VERTEX
  8
0
 10
658.345824
 20
137.564585
 42
0.025712
  0
VERTEX
  8
0
 10
652.971095
 20
157.525634
 42
0.039811
  0
VERTEX
  8
0
 10
646.121786
 20
174.000000
 42
0.013731
  0
VERTEX
  8
0
 10
643.410894
 20
178.949843
 42
0.093252
  0
VERTEX
  8
0
 10
641.591603
 20
181.047370
 42
0.197192
  0
VERTEX
  8
0
 10
639.781047
 20
181.569888
 42
0.101863
  0
SEQEND
  0
POLYLINE
  8
0
 66
1
 70
1
  0
VERTEX
  8
0
 10
419.919516
 20
919.906130
 42
0.035142
  0
VERTEX
  8
0
 10
421.039494
 20
919.547372
 42
0.064618
  0
VERTEX
  8
0
 10
421.989432
 20
919.441796
 42
0.082521
  0
VERTEX
  8
0
 10
422.765864
 20
919.585523
 42
0.109861
  0
VERTEX
  8
0
 10
423.369516
 20
919.969516
 42
0.206327
  0
VERTEX
  8
0
 10
423.542849
 20
920.405441
 42
0.298972
  0
VERTEX
  8
0
 10
423.313015
 20
920.734622
 42
0.083503
  0
VERTEX
  8
0
 10
422.483155
 20
920.914655
 42
0.016348
  0
VERTEX
  8
0
 10
420.950000
 20
920.936614
 42
0.002632
  0
VERTEX
  8
0
 10
418.699592
 20
920.883415
 42
0.191412
  0
VERTEX
  8
0
 10
418.366576
 20
920.739803
 42
0.530497
  0
VERTEX
  8
0
 10
418.406378
 20
920.532950
 42
0.006239
  0
SEQEND
  0
POLYLINE
  8
0
 66
1
 70
1
  0
VERTEX
  8
0
 10
411.028960
 20
909.039060
 42
0.041632
  0
VERTEX
  8
0
 10
410.504976
 20
908.643090
 42
0.069903
  0
VERTEX
  8
0
 10
410.149850
 20
908.222214
 42
0.103377
  0
VERTEX
  8
0
 10
410.009780
 20
907.844675
 42
0.238008
  0
VERTEX
  8
0
 10
410.101961
 20
907.564705
 42
0.237089
  0
VERTEX
  8
0
 10
410.440600
 20
907.452553
 42
0.052160
  0
VERTEX
  8
0
 10
411.052246
 20
907.608724
 42
0.043644
  0
VERTEX
  8
0
 10
411.795252
 20
907.959832
 42
0.029758
  0
VERTEX
  8
0
 10
412.573001
 20
908.478529
 42
0.052064
  0
VERTEX
  8
0
 10
413.604451
 20
909.442728
 42
0.526220
  0
VERTEX
  8
0
 10
413.480849
 20
909.919316
 42
0.197460
  0
VERTEX
  8
0
 10
412.579793
 20
909.881748
 42
0.033098
  0
SEQEND
  0
POLYLINE
  8
0
 66
1
 70
1
  0
VERTEX
  8
0
 10
327.476217
 20
892.750000
 42
0.000000
  0
VERTEX
  8
0
 10
325.901073
 20
889.500000
 42
0.000000
  0
VERTEX
  8
0
 10
327.950537
 20
891.860784
 42
0.017139
  0
VERTEX
  8
0
 10
328.735212
 20
892.829832
 42
0.020942
  0
VERTEX
  8
0
 10
329.397970
 20
893.789295
 42
0.019967
  0
VERTEX
  8
0
 10
329.881123
 20
894.627898
 42
0.121280
  0
VERTEX
  8
0
 10
330.000000
 20
895.110784
 42
0.174521
  0
VERTEX
  8
0
 10
329.767505
 20
895.756592
 42
0.432171
  0
VERTEX
  8
0
 10
329.319345
 20
895.785231
 42
0.077291
  0
VERTEX
  8
0
 10
328.541106
 20
894.791706
 42
0.014728
  0
SEQEND
  0
POLYLINE
  8
0
 66
1
 70
1
  0
VERTEX
  8
0
 10
610.200000
 20
859.800000
 42
0.134668
  0
VERTEX
  8
0
 10
609.220142
 20
858.079366
 42
0.100122
  0
VERTEX
  8
0
 10
609.109546
 20
855.885493
 42
0.086968
  0
VERTEX
  8
0
 10
609.889530
 20
853.553001
 42
0.072423
  0
VERTEX
  8
0
 10
611.454545
 20
851.454545
 42
0.039406
  0
VERTEX
  8
0
 10
613.356466
 20
849.830910
 42
0.108591
  0
VERTEX
  8
0
 10
614.962876
 20
849.129802
 42
0.147619
  0
VERTEX
  8
0
 10
616.408393
 20
849.271816
 42
0.098907
  0
VERTEX
  8
0
 10
617.800000
 20
850.200000
 42
0.140204
  0
VERTEX
  8
0
 10
618.652936
 20
851.736342
 42
0.052455
  0
VERTEX
  8
0
 10
618.959262
 20
854.206089
 42
0.050963
  0
VERTEX
  8
0
 10
618.736915
 20
856.870781
 42
0.076728
  0
VERTEX
  8
0
 10
617.964816
 20
859.065741
 42
0.161510
  0
VERTEX
  8
0
 10
616.608361
 20
860.352778
 42
0.086366
  0
VERTEX
  8
0
 10
614.355494
 20
860.968004
 42
0.083939
  0
VERTEX
  8
0
 10
611.961671
 20
860.792456
 42
0.137026
  0
SEQEND
  0
POLYLINE
  8
0
 66
1
 70
1
  0
VERTEX
  8
0
 10
644.794820
 20
857.232563
 42
0.069748
  0
VERTEX
  8
0
 10
642.716772
 20
855.536086
 42
0.068897
  0
VERTEX
  8
0
 10
641.175138
 20
853.327054
 42
0.075223
  0
VERTEX
  8
0
 10
640.393767
 20
850.981457
 42
0.120257
  0
VERTEX
  8
0
 10
640.536471
 20
848.885091
 42
0.206076
  0
VERTEX
  8
0
 10
641.841018
 20
847.378939
 42
0.135739
  0
VERTEX
  8
0
 10
644.128653
 20
846.960977
 42
0.106605
  0
VERTEX
  8
0
 10
646.767458
 20
847.781666
 42
0.097898
  0
VERTEX
  8
0
 10
648.927420
 20
849.634859
 42
0.098615
  0
VERTEX
  8
0
 10
650.841321
 20
853.403357
 42
0.195302
  0
VERTEX
  8
0
 10
650.471362
 20
856.680334
 42
0.266463
  0
VERTEX
  8
0
 10
648.143488
 20
858.113347
 42
0.145095
  0
SEQEND
  0
POLYLINE
  8
0
 66
1
 70
1
  0
VERTEX
  8
0
 10
622.187500
 20
849.937500
 42
0.068635
  0
VERTEX
  8
0
 10
622.451550
 20
849.402945
 42
0.047420
  0
VERTEX
  8
0
 10
622.882031
 20
848.882031
 42
0.047420
  0
VERTEX
  8
0
 10
623.402945
 20
848.451550
 42
0.068635
  0
VERTEX
  8
0
 10
623.937500
 20
848.187500
 42
0.083060
  0
VERTEX
  8
0
 10
624.420316
 20
848.111558
 42
0.196386
  0
VERTEX
  8
0
 10
624.750000
 20
848.250000
 42
0.196386
  0
VERTEX
  8
0
 10
624.888442
 20
848.579684
 42
0.083060
  0
VERTEX
  8
0
 10
624.812500
 20
849.062500
 42
0.068635
  0
VERTEX
  8
0
 10
624.548450
 20
849.597055
 42
0.047420
  0
VERTEX
  8
0
 10
624.117969
 20
850.117969
 42
0.047420
  0
VERTEX
  8
0
 10
623.597055
 20
850.548450
 42
0.068635
  0
VERTEX
  8
0
 10
623.062500
 20
850.812500
 42
0.083060
  0
VERTEX
  8
0
 10
622.579684
 20
850.888442
 42
0.196386
  0
VERTEX
  8
0
 10
622.250000
 20
850.750000
 42
0.196386
  0
VERTEX
  8
0
 10
622.111558
 20
850.420316
 42
0.083060
  0
SEQEND
  0
POLYLINE
  8
0
 66
1
 70
1
  0
VERTEX
  8
0
 10
620.000000
 20
842.500000
 42
0.064853
  0
VERTEX
  8
0
 10
620.074694
 20
841.926543
 42
0.082425
  0
VERTEX
  8
0
 10
620.293750
 20
841.440625
 42
0.098894
  0
VERTEX
  8
0
 10
620.618646
 20
841.115568
 42
0.148195
  0
VERTEX
  8
0
 10
621.000000
 20
841.000000
 42
0.148195
  0
VERTEX
  8
0
 10
621.381354
 20
841.115568
 42
0.098894
  0
VERTEX
  8
0
 10
621.706250
 20
841.440625
 42
0.082425
  0
VERTEX
  8
0
 10
621.925306
 20
841.926543
 42
0.064853
  0
VERTEX
  8
0
 10
622.000000
 20
842.500000
 42
0.064853
  0
VERTEX
  8
0
 10
621.925306
 20
843.073457
 42
0.082425
  0
VERTEX
  8
0
 10
621.706250
 20
843.559375
 42
0.098894
  0
VERTEX
  8
0
 10
621.381354
 20
843.884432
 42
0.148195
  0
VERTEX
  8
0
 10
621.000000
 20
844.000000
 42
0.148195
  0
VERTEX
  8
0
 10
620.618646
 20
843.884432
 42
0.098894
  0
VERTEX
  8
0
 10
620.293750
 20
843.559375
 42
0.082425
  0
VERTEX
  8
0
 10
620.074694
 20
843.073457
 42
0.064853
  0
SEQEND
  0
POLYLINE
  8
0
 66
1
 70
1
  0
VERTEX
  8
0
 10
640.542705
 20
841.069098
 42
0.108373
  0
VERTEX
  8
0
 10
640.401101
 20
840.665803
 42
0.099685
  0
VERTEX
  8
0
 10
640.434921
 20
840.227140
 42
0.095498
  0
VERTEX
  8
0
 10
640.639411
 20
839.820631
 42
0.090427
  0
VERTEX
  8
0
 10
640.983688
 20
839.510081
 42
0.142343
  0
VERTEX
  8
0
 10
641.922836
 20
839.249368
 42
0.116119
  0
VERTEX
  8
0
 10
642.939360
 20
839.501581
 42
0.119510
  0
VERTEX
  8
0
 10
643.715504
 20
840.171804
 42
0.156409
  0
VERTEX
  8
0
 10
644.000000
 20
841.059017
 42
0.280205
  0
VERTEX
  8
0
 10
643.598328
 20
841.719488
 42
0.119333
  0
VERTEX
  8
0
 10
642.552855
 20
841.975841
 42
0.097450
  0
VERTEX
  8
0
 10
641.337303
 20
841.740337
 42
0.159216
  0
SEQEND
  0
POLYLINE
  8
0
 66
1
 70
1
  0
VERTEX
  8
0
 10
616.150000
 20
839.050000
 42
0.053161
  0
VERTEX
  8
0
 10
616.356830
 20
838.596593
 42
0.062883
  0
VERTEX
  8
0
 10
616.645469
 20
838.224531
 42
0.073742
  0
VERTEX
  8
0
 10
616.968009
 20
837.985296
 42
0.149613
  0
VERTEX
  8
0
 10
617.275000
 20
837.925000
 42
0.175736
  0
VERTEX
  8
0
 10
617.869758
 20
838.213035
 42
0.239194
  0
VERTEX
  8
0
 10
618.044314
 20
838.772743
 42
0.167686
  0
VERTEX
  8
0
 10
617.694791
 20
839.413248
 42
0.104687
  0
VERTEX
  8
0
 10
616.950000
 20
839.850000
 42
0.089632
  0
VERTEX
  8
0
 10
616.522225
 20
839.911576
 42
0.189618
  0
VERTEX
  8
0
 10
616.220000
 20
839.780000
 42
0.189618
  0
VERTEX
  8
0
 10
616.088424
 20
839.477775
 42
0.089632
  0
SEQEND
  0
POLYLINE
  8
0
 66
1
 70
1
  0
VERTEX
  8
0
 10
609.229167
 20
836.812500
 42
0.113253
  0
VERTEX
  8
0
 10
609.877068
 20
835.749304
 42
0.165501
  0
VERTEX
  8
0
 10
610.846361
 20
835.257027
 42
0.244413
  0
VERTEX
  8
0
 10
611.653027
 20
835.540134
 42
0.190724
  0
VERTEX
  8
0
 10
612.000000
 20
836.416667
 42
0.099038
  0
VERTEX
  8
0
 10
611.879125
 20
837.020927
 42
0.097945
  0
VERTEX
  8
0
 10
611.534896
 20
837.534896
 42
0.097945
  0
VERTEX
  8
0
 10
611.020927
 20
837.879125
 42
0.099038
  0
VERTEX
  8
0
 10
610.416667
 20
838.000000
 42
0.077096
  0
VERTEX
  8
0
 10
609.841384
 20
837.910766
 42
0.119977
  0
VERTEX
  8
0
 10
609.414714
 20
837.651172
 42
0.144529
  0
VERTEX
  8
0
 10
609.204183
 20
837.264262
 42
0.134046
  0
SEQEND
  0
POLYLINE
  8
0
 66
1
 70
1
  0
VERTEX
  8
0
 10
628.000000
 20
836.500000
 42
0.064853
  0
VERTEX
  8
0
 10
628.074694
 20
835.926543
 42
0.082425
  0
VERTEX
  8
0
 10
628.293750
 20
835.440625
 42
0.098894
  0
VERTEX
  8
0
 10
628.618646
 20
835.115568
 42
0.148195
  0
VERTEX
  8
0
 10
629.000000
 20
835.000000
 42
0.148195
  0
VERTEX
  8
0
 10
629.381354
 20
835.115568
 42
0.098894
  0
VERTEX
  8
0
 10
629.706250
 20
835.440625
 42
0.082425
  0
VERTEX
  8
0
 10
629.925306
 20
835.926543
 42
0.064853
  0
VERTEX
  8
0
 10
630.000000
 20
836.500000
 42
0.064853
  0
VERTEX
  8
0
 10
629.925306
 20
837.073457
 42
0.082425
  0
VERTEX
  8
0
 10
629.706250
 20
837.559375
 42
0.098894
  0
VERTEX
  8
0
 10
629.381354
 20
837.884432
 42
0.148195
  0
VERTEX
  8
0
 10
629.000000
 20
838.000000
 42
0.148195
  0
VERTEX
  8
0
 10
628.618646
 20
837.884432
 42
0.098894
  0
VERTEX
  8
0
 10
628.293750
 20
837.559375
 42
0.082425
  0
VERTEX
  8
0
 10
628.074694
 20
837.073457
 42
0.064853
  0
SEQEND
  0
POLYLINE
  8
0
 66
1
 70
1
  0
VERTEX
  8
0
 10
622.000000
 20
834.106989
 42
0.138750
  0
VERTEX
  8
0
 10
622.108626
 20
833.723081
 42
0.061199
  0
VERTEX
  8
0
 10
622.440625
 20
833.307216
 42
0.053891
  0
VERTEX
  8
0
 10
622.926204
 20
832.924763
 42
0.048303
  0
VERTEX
  8
0
 10
623.500000
 20
832.638374
 42
0.075244
  0
VERTEX
  8
0
 10
624.114961
 20
832.503306
 42
0.151899
  0
VERTEX
  8
0
 10
624.592642
 20
832.617923
 42
0.166113
  0
VERTEX
  8
0
 10
624.893789
 20
832.972145
 42
0.094119
  0
VERTEX
  8
0
 10
625.000000
 20
833.531385
 42
0.101220
  0
VERTEX
  8
0
 10
624.885371
 20
834.091819
 42
0.098432
  0
VERTEX
  8
0
 10
624.559375
 20
834.568594
 42
0.097416
  0
VERTEX
  8
0
 10
624.072505
 20
834.887999
 42
0.096899
  0
VERTEX
  8
0
 10
623.500000
 20
835.000000
 42
0.057609
  0
VERTEX
  8
0
 10
622.926285
 20
834.933678
 42
0.076852
  0
VERTEX
  8
0
 10
622.440625
 20
834.737678
 42
0.095748
  0
VERTEX
  8
0
 10
622.115158
 20
834.447641
 42
0.164455
  0
SEQEND
  0
POLYLINE
  8
0
 66
1
 70
1
  0
VERTEX
  8
0
 10
643.458881
 20
833.933469
 42
0.055289
  0
VERTEX
  8
0
 10
643.246476
 20
833.485906
 42
0.063671
  0
VERTEX
  8
0
 10
643.150101
 20
833.023485
 42
0.073797
  0
VERTEX
  8
0
 10
643.178227
 20
832.616664
 42
0.143229
  0
VERTEX
  8
0
 10
643.333333
 20
832.333333
 42
0.245171
  0
VERTEX
  8
0
 10
644.010153
 20
832.120596
 42
0.099840
  0
VERTEX
  8
0
 10
644.935284
 20
832.485110
 42
0.089687
  0
VERTEX
  8
0
 10
645.724195
 20
833.224864
 42
0.161033
  0
VERTEX
  8
0
 10
646.000000
 20
834.059017
 42
0.206886
  0
VERTEX
  8
0
 10
645.714394
 20
834.719722
 42
0.203785
  0
VERTEX
  8
0
 10
645.034956
 20
834.969816
 42
0.139607
  0
VERTEX
  8
0
 10
644.163143
 20
834.674324
 42
0.103622
  0
SEQEND
  0
POLYLINE
  8
0
 66
1
 70
1
  0
VERTEX
  8
0
 10
635.542705
 20
833.069098
 42
0.108373
  0
VERTEX
  8
0
 10
635.401101
 20
832.665803
 42
0.099685
  0
VERTEX
  8
0
 10
635.434921
 20
832.227140
 42
0.095498
  0
VERTEX
  8
0
 10
635.639411
 20
831.820631
 42
0.090427
  0
VERTEX
  8
0
 10
635.983688
 20
831.510081
 42
0.136093
  0
VERTEX
  8
0
 10
636.369640
 20
831.397824
 42
0.190788
  0
VERTEX
  8
0
 10
636.701458
 20
831.524436
 42
0.140899
  0
VERTEX
  8
0
 10
636.925389
 20
831.890269
 42
0.067432
  0
VERTEX
  8
0
 10
637.000000
 20
832.440983
 42
0.039415
  0
VERTEX
  8
0
 10
636.914842
 20
833.519563
 42
0.257010
  0
VERTEX
  8
0
 10
636.592818
 20
833.933879
 42
0.315493
  0
VERTEX
  8
0
 10
636.133140
 20
833.838655
 42
0.050477
  0
SEQEND
  0
POLYLINE
  8
0
 66
1
 70
1
  0
VERTEX
  8
0
 10
595.049595
 20
831.241243
 42
0.110026
  0
VERTEX
  8
0
 10
593.652975
 20
829.481897
 42
0.217258
  0
VERTEX
  8
0
 10
593.611172
 20
827.735305
 42
0.163927
  0
VERTEX
  8
0
 10
594.985600
 20
826.196084
 42
0.061962
  0
VERTEX
  8
0
 10
597.684600
 20
825.076641
 42
0.060217
  0
VERTEX
  8
0
 10
600.656070
 20
824.630242
 42
0.083749
  0
VERTEX
  8
0
 10
603.316057
 20
825.000435
 42
0.094228
  0
VERTEX
  8
0
 10
605.476976
 20
826.162196
 42
0.099882
  0
VERTEX
  8
0
 10
607.008592
 20
828.016055
 42
0.037809
  0
VERTEX
  8
0
 10
607.490457
 20
829.107330
 42
0.089640
  0
VERTEX
  8
0
 10
607.632660
 20
829.980561
 42
0.104594
  0
VERTEX
  8
0
 10
607.452881
 20
830.763153
 42
0.064712
  0
VERTEX
  8
0
 10
606.946949
 20
831.563922
 42
0.177552
  0
VERTEX
  8
0
 10
604.967253
 20
832.714919
 42
0.050620
  0
VERTEX
  8
0
 10
601.364076
 20
832.982178
 42
0.050735
  0
VERTEX
  8
0
 10
597.616589
 20
832.497967
 42
0.113174
  0
SEQEND
  0
POLYLINE
  8
0
 66
1
 70
1
  0
VERTEX
  8
0
 10
615.191667
 20
831.925000
 42
0.073624
  0
VERTEX
  8
0
 10
615.399741
 20
831.514089
 42
0.066918
  0
VERTEX
  8
0
 10
615.723802
 20
831.165781
 42
0.070382
  0
VERTEX
  8
0
 10
616.110048
 20
830.930417
 42
0.102038
  0
VERTEX
  8
0
 10
616.500000
 20
830.850000
 42
0.102038
  0
VERTEX
  8
0
 10
616.889952
 20
830.930417
 42
0.070382
  0
VERTEX
  8
0
 10
617.276198
 20
831.165781
 42
0.066918
  0
VERTEX
  8
0
 10
617.600259
 20
831.514089
 42
0.073624
  0
VERTEX
  8
0
 10
617.808333
 20
831.925000
 42
0.159683
  0
VERTEX
  8
0
 10
617.810399
 20
832.333474
 42
0.143818
  0
VERTEX
  8
0
 10
617.571823
 20
832.684219
 42
0.107546
  0
VERTEX
  8
0
 10
617.111023
 20
832.920344
 42
0.064908
  0
VERTEX
  8
0
 10
616.500000
 20
833.000000
 42
0.064908
  0
VERTEX
  8
0
 10
615.888977
 20
832.920344
 42
0.107546
  0
VERTEX
  8
0
 10
615.428177
 20
832.684219
 42
0.143818
  0
VERTEX
  8
0
 10
615.189601
 20
832.333474
 42
0.159683
  0
SEQEND
  0
POLYLINE
  8
0
 66
1
 70
1
  0
VERTEX
  8
0
 10
628.000000
 20
830.468615
 42
0.101220
  0
VERTEX
  8
0
 10
628.114629
 20
829.908181
 42
0.098432
  0
VERTEX
  8
0
 10
628.440625
 20
829.431406
 42
0.097416
  0
VERTEX
  8
0
 10
628.927495
 20
829.112001
 42
0.096899
  0
VERTEX
  8
0
 10
629.500000
 20
829.000000
 42
0.057609
  0
VERTEX
  8
0
 10
630.073715
 20
829.066322
 42
0.076852
  0
VERTEX
  8
0
 10
630.559375
 20
829.262322
 42
0.095748
  0
VERTEX
  8
0
 10
630.884842
 20
829.552359
 42
0.164455
  0
VERTEX
  8
0
 10
631.000000
 20
829.893011
 42
0.138750
  0
VERTEX
  8
0
 10
630.891374
 20
830.276919
 42
0.061199
  0
VERTEX
  8
0
 10
630.559375
 20
830.692784
 42
0.053891
  0
VERTEX
  8
0
 10
630.073796
 20
831.075237
 42
0.048303
  0
VERTEX
  8
0
 10
629.500000
 20
831.361626
 42
0.075244
  0
VERTEX
  8
0
 10
628.885039
 20
831.496694
 42
0.151899
  0
VERTEX
  8
0
 10
628.407358
 20
831.382077
 42
0.166113
  0
VERTEX
  8
0
 10
628.106211
 20
831.027855
 42
0.094119
  0
SEQEND
  0
POLYLINE
  8
0
 66
1
 70
1
  0
VERTEX
  8
0
 10
650.278541
 20
829.147866
 42
0.084672
  0
VERTEX
  8
0
 10
649.844413
 20
828.751673
 42
0.030378
  0
VERTEX
  8
0
 10
649.369057
 20
828.058894
 42
0.029100
  0
VERTEX
  8
0
 10
648.930158
 20
827.220877
 42
0.030510
  0
VERTEX
  8
0
 10
648.599290
 20
826.350497
 42
0.197798
  0
VERTEX
  8
0
 10
648.777197
 20
824.340532
 42
0.089034
  0
VERTEX
  8
0
 10
650.423178
 20
822.204035
 42
0.079631
  0
VERTEX
  8
0
 10
652.934337
 20
820.566572
 42
0.105111
  0
VERTEX
  8
0
 10
655.599675
 20
820.000000
 42
0.132030
  0
VERTEX
  8
0
 10
657.711442
 20
820.567527
 42
0.150890
  0
VERTEX
  8
0
 10
659.126773
 20
822.098425
 42
0.155702
  0
VERTEX
  8
0
 10
659.407222
 20
824.121484
 42
0.142041
  0
VERTEX
  8
0
 10
658.482619
 20
826.019206
 42
0.072220
  0
VERTEX
  8
0
 10
656.652626
 20
827.532779
 42
0.045663
  0
VERTEX
  8
0
 10
654.160682
 20
828.753759
 42
0.045419
  0
VERTEX
  8
0
 10
651.735709
 20
829.434176
 42
0.190656
  0
SEQEND
  0
POLYLINE
  8
0
 66
1
 70
1
  0
VERTEX
  8
0
 10
619.542705
 20
827.069098
 42
0.195483
  0
VERTEX
  8
0
 10
619.412739
 20
826.300347
 42
0.177971
  0
VERTEX
  8
0
 10
619.849183
 20
825.620737
 42
0.173509
  0
VERTEX
  8
0
 10
620.632003
 20
825.375083
 42
0.188660
  0
VERTEX
  8
0
 10
621.360520
 20
825.693853
 42
0.094258
  0
VERTEX
  8
0
 10
621.860497
 20
826.428701
 42
0.135693
  0
VERTEX
  8
0
 10
621.969472
 20
827.203471
 42
0.182678
  0
VERTEX
  8
0
 10
621.664889
 20
827.772622
 42
0.181466
  0
VERTEX
  8
0
 10
621.059017
 20
828.000000
 42
0.084470
  0
VERTEX
  8
0
 10
620.656520
 20
827.931514
 42
0.053430
  0
VERTEX
  8
0
 10
620.225445
 20
827.726548
 42
0.051896
  0
VERTEX
  8
0
 10
619.832549
 20
827.425195
 42
0.064898
  0
SEQEND
  0
POLYLINE
  8
0
 66
1
 70
1
  0
VERTEX
  8
0
 10
632.187500
 20
826.937500
 42
0.068635
  0
VERTEX
  8
0
 10
632.451550
 20
826.402945
 42
0.047420
  0
VERTEX
  8
0
 10
632.882031
 20
825.882031
 42
0.047420
  0
VERTEX
  8
0
 10
633.402945
 20
825.451550
 42
0.068635
  0
VERTEX
  8
0
 10
633.937500
 20
825.187500
 42
0.083060
  0
VERTEX
  8
0
 10
634.420316
 20
825.111558
 42
0.196386
  0
VERTEX
  8
0
 10
634.750000
 20
825.250000
 42
0.196386
  0
VERTEX
  8
0
 10
634.888442
 20
825.579684
 42
0.083060
  0
VERTEX
  8
0
 10
634.812500
 20
826.062500
 42
0.068635
  0
VERTEX
  8
0
 10
634.548450
 20
826.597055
 42
0.047420
  0
VERTEX
  8
0
 10
634.117969
 20
827.117969
 42
0.047420
  0
VERTEX
  8
0
 10
633.597055
 20
827.548450
 42
0.068635
  0
VERTEX
  8
0
 10
633.062500
 20
827.812500
 42
0.083060
  0
VERTEX
  8
0
 10
632.579684
 20
827.888442
 42
0.196386
  0
VERTEX
  8
0
 10
632.250000
 20
827.750000
 42
0.196386
  0
VERTEX
  8
0
 10
632.111558
 20
827.420316
 42
0.083060
  0
SEQEND
  0
POLYLINE
  8
0
 66
1
 70
1
  0
VERTEX
  8
0
 10
640.154497
 20
825.448034
 42
0.061282
  0
VERTEX
  8
0
 10
640.386587
 20
824.733074
 42
0.053155
  0
VERTEX
  8
0
 10
640.793750
 20
824.057674
 42
0.055874
  0
VERTEX
  8
0
 10
641.305054
 20
823.520093
 42
0.094625
  0
VERTEX
  8
0
 10
641.845503
 20
823.217698
 42
0.100052
  0
VERTEX
  8
0
 10
642.389327
 20
823.151022
 42
0.215807
  0
VERTEX
  8
0
 10
642.751111
 20
823.349860
 42
0.158392
  0
VERTEX
  8
0
 10
642.910592
 20
823.817000
 42
0.051620
  0
VERTEX
  8
0
 10
642.845503
 20
824.551966
 42
0.061282
  0
VERTEX
  8
0
 10
642.613413
 20
825.266926
 42
0.053155
  0
VERTEX
  8
0
 10
642.206250
 20
825.942326
 42
0.055874
  0
VERTEX
  8
0
 10
641.694946
 20
826.479907
 42
0.094625
  0
VERTEX
  8
0
 10
641.154497
 20
826.782302
 42
0.100052
  0
VERTEX
  8
0
 10
640.610673
 20
826.848978
 42
0.215807
  0
VERTEX
  8
0
 10
640.248889
 20
826.650140
 42
0.158392
  0
VERTEX
  8
0
 10
640.089408
 20
826.183000
 42
0.051620
  0
SEQEND
  0
POLYLINE
  8
0
 66
1
 70
1
  0
VERTEX
  8
0
 10
611.000000
 20
825.000000
 42
0.092995
  0
VERTEX
  8
0
 10
611.071618
 20
824.618268
 42
0.096318
  0
VERTEX
  8
0
 10
611.276414
 20
824.293750
 42
0.099231
  0
VERTEX
  8
0
 10
611.581949
 20
824.076556
 42
0.105429
  0
VERTEX
  8
0
 10
611.940983
 20
824.000000
 42
0.089642
  0
VERTEX
  8
0
 10
612.346558
 20
824.073302
 42
0.053229
  0
VERTEX
  8
0
 10
612.787100
 20
824.293750
 42
0.051032
  0
VERTEX
  8
0
 10
613.193797
 20
824.617485
 42
0.060810
  0
VERTEX
  8
0
 10
613.500000
 20
825.000000
 42
0.139169
  0
VERTEX
  8
0
 10
613.607943
 20
825.379648
 42
0.191142
  0
VERTEX
  8
0
 10
613.478525
 20
825.706250
 42
0.138808
  0
VERTEX
  8
0
 10
613.110654
 20
825.926733
 42
0.066118
  0
VERTEX
  8
0
 10
612.559017
 20
826.000000
 42
0.062283
  0
VERTEX
  8
0
 10
611.962904
 20
825.925455
 42
0.080552
  0
VERTEX
  8
0
 10
611.457961
 20
825.706250
 42
0.097988
  0
VERTEX
  8
0
 10
611.120018
 20
825.381379
 42
0.153634
  0
SEQEND
  0
POLYLINE
  8
0
 66
1
 70
1
  0
VERTEX
  8
0
 10
623.666667
 20
823.333333
 42
0.091649
  0
VERTEX
  8
0
 10
623.095775
 20
822.503522
 42
0.193059
  0
VERTEX
  8
0
 10
623.066255
 20
821.735179
 42
0.206496
  0
VERTEX
  8
0
 10
623.569797
 20
821.194980
 42
0.103678
  0
VERTEX
  8
0
 10
624.500000
 20
821.000000
 42
0.099038
  0
VERTEX
  8
0
 10
625.072457
 20
821.114514
 42
0.097945
  0
VERTEX
  8
0
 10
625.559375
 20
821.440625
 42
0.097945
  0
VERTEX
  8
0
 10
625.885486
 20
821.927543
 42
0.099038
  0
VERTEX
  8
0
 10
626.000000
 20
822.500000
 42
0.103678
  0
VERTEX
  8
0
 10
625.805020
 20
823.430203
 42
0.206496
  0
VERTEX
  8
0
 10
625.264821
 20
823.933745
 42
0.193059
  0
VERTEX
  8
0
 10
624.496478
 20
823.904225
 42
0.091649
  0
SEQEND
  0
POLYLINE
  8
0
 66
1
 70
1
  0
VERTEX
  8
0
 10
617.145287
 20
819.675060
 42
0.053861
  0
VERTEX
  8
0
 10
616.643804
 20
818.918095
 42
0.151481
  0
VERTEX
  8
0
 10
616.533311
 20
818.299708
 42
0.143237
  0
VERTEX
  8
0
 10
616.790597
 20
817.705145
 42
0.046316
  0
VERTEX
  8
0
 10
617.475836
 20
817.020055
 42
0.034716
  0
VERTEX
  8
0
 10
618.288632
 20
816.435708
 42
0.190709
  0
VERTEX
  8
0
 10
618.810245
 20
816.342393
 42
0.211081
  0
VERTEX
  8
0
 10
619.221727
 20
816.633627
 42
0.043130
  0
VERTEX
  8
0
 10
619.620949
 20
817.454593
 42
0.111839
  0
VERTEX
  8
0
 10
619.841853
 20
818.981724
 42
0.192473
  0
VERTEX
  8
0
 10
619.280203
 20
820.117081
 42
0.252090
  0
VERTEX
  8
0
 10
618.235324
 20
820.369703
 42
0.156612
  0
SEQEND
  0
POLYLINE
  8
0
 66
1
 70
1
  0
VERTEX
  8
0
 10
630.009821
 20
819.511833
 42
0.035728
  0
VERTEX
  8
0
 10
629.435113
 20
818.709024
 42
0.191145
  0
VERTEX
  8
0
 10
629.344630
 20
818.188584
 42
0.209307
  0
VERTEX
  8
0
 10
629.637392
 20
817.776981
 42
0.043397
  0
VERTEX
  8
0
 10
630.454593
 20
817.379051
 42
0.127721
  0
VERTEX
  8
0
 10
631.851215
 20
817.221488
 42
0.136751
  0
VERTEX
  8
0
 10
633.107487
 20
817.772797
 42
0.167237
  0
VERTEX
  8
0
 10
633.740398
 20
818.795816
 42
0.196524
  0
VERTEX
  8
0
 10
633.553851
 20
819.912868
 42
0.096738
  0
VERTEX
  8
0
 10
632.813276
 20
820.713499
 42
0.188214
  0
VERTEX
  8
0
 10
631.984508
 20
820.933434
 42
0.142888
  0
VERTEX
  8
0
 10
631.055068
 20
820.544266
 42
0.049461
  0
SEQEND
  0
POLYLINE
  8
0
 66
1
 70
1
  0
VERTEX
  8
0
 10
620.556704
 20
812.777494
 42
0.051366
  0
VERTEX
  8
0
 10
619.453525
 20
810.797708
 42
0.098815
  0
VERTEX
  8
0
 10
619.078652
 20
809.027966
 42
0.100881
  0
VERTEX
  8
0
 10
619.414653
 20
807.274578
 42
0.055205
  0
VERTEX
  8
0
 10
620.469409
 20
805.347137
 42
0.114219
  0
VERTEX
  8
0
 10
623.119880
 20
802.964034
 42
0.209307
  0
VERTEX
  8
0
 10
625.960176
 20
802.701354
 42
0.184307
  0
VERTEX
  8
0
 10
628.345787
 20
804.650154
 42
0.090354
  0
VERTEX
  8
0
 10
629.678009
 20
808.403229
 42
0.022245
  0
VERTEX
  8
0
 10
629.917244
 20
810.449349
 42
0.074961
  0
VERTEX
  8
0
 10
629.812914
 20
811.788820
 42
0.105565
  0
VERTEX
  8
0
 10
629.349365
 20
812.779297
 42
0.072966
  0
VERTEX
  8
0
 10
628.464046
 20
813.649949
 42
0.084588
  0
VERTEX
  8
0
 10
626.349595
 20
814.704402
 42
0.101273
  0
VERTEX
  8
0
 10
624.137891
 20
814.908382
 42
0.107353
  0
VERTEX
  8
0
 10
622.121803
 20
814.231809
 42
0.105923
  0
SEQEND
  0
POLYLINE
  8
0
 66
1
 70
1
  0
VERTEX
  8
0
 10
722.452251
 20
756.353977
 42
0.030845
  0
VERTEX
  8
0
 10
720.747141
 20
754.269993
 42
0.122194
  0
VERTEX
  8
0
 10
720.136540
 20
752.745166
 42
0.147306
  0
VERTEX
  8
0
 10
720.366066
 20
751.274357
 42
0.052232
  0
VERTEX
  8
0
 10
721.494276
 20
749.441130
 42
0.044236
  0
VERTEX
  8
0
 10
722.479466
 20
748.371797
 42
0.261795
  0
VERTEX
  8
0
 10
723.193967
 20
748.207650
 42
0.127231
  0
VERTEX
  8
0
 10
724.039548
 20
748.713808
 42
0.008589
  0
VERTEX
  8
0
 10
725.994276
 20
750.765777
 42
0.055669
  0
VERTEX
  8
0
 10
728.082283
 20
753.613150
 42
0.101772
  0
VERTEX
  8
0
 10
728.980947
 20
756.337123
 42
0.186234
  0
VERTEX
  8
0
 10
728.499356
 20
758.204252
 42
0.242100
  0
VERTEX
  8
0
 10
726.952251
 20
759.000000
 42
0.095402
  0
VERTEX
  8
0
 10
725.994314
 20
758.815544
 42
0.037792
  0
VERTEX
  8
0
 10
724.785680
 20
758.222731
 42
0.035669
  0
VERTEX
  8
0
 10
723.541786
 20
757.366502
 42
0.037322
  0
SEQEND
  0
POLYLINE
  8
0
 66
1
 70
1
  0
VERTEX
  8
0
 10
690.200000
 20
753.800000
 42
0.197979
  0
VERTEX
  8
0
 10
689.063248
 20
751.069511
 42
0.153864
  0
VERTEX
  8
0
 10
690.028502
 20
747.968259
 42
0.133626
  0
VERTEX
  8
0
 10
692.759833
 20
745.676810
 42
0.144283
  0
VERTEX
  8
0
 10
696.192184
 20
745.172873
 42
0.152916
  0
VERTEX
  8
0
 10
698.101725
 20
746.081875
 42
0.216581
  0
VERTEX
  8
0
 10
698.818166
 20
747.793315
 42
0.144456
  0
VERTEX
  8
0
 10
698.075726
 20
750.056049
 42
0.066928
  0
VERTEX
  8
0
 10
695.975426
 20
752.367224
 42
0.012766
  0
VERTEX
  8
0
 10
693.633756
 20
754.237624
 42
0.101667
  0
VERTEX
  8
0
 10
692.391519
 20
754.831285
 42
0.191032
  0
VERTEX
  8
0
 10
691.380126
 20
754.694587
 42
0.068491
  0
SEQEND
  0
POLYLINE
  8
0
 66
1
 70
1
  0
VERTEX
  8
0
 10
711.502840
 20
747.008949
 42
0.040469
  0
VERTEX
  8
0
 10
711.309320
 20
746.168979
 42
0.038180
  0
VERTEX
  8
0
 10
711.248524
 20
745.292126
 42
0.040565
  0
VERTEX
  8
0
 10
711.317967
 20
744.506682
 42
0.096373
  0
VERTEX
  8
0
 10
711.524480
 20
743.960390
 42
0.296793
  0
VERTEX
  8
0
 10
712.428196
 20
743.534719
 42
0.151489
  0
VERTEX
  8
0
 10
713.612631
 20
744.088739
 42
0.099738
  0
VERTEX
  8
0
 10
714.637925
 20
745.483876
 42
0.109168
  0
VERTEX
  8
0
 10
715.000000
 20
747.122445
 42
0.155609
  0
VERTEX
  8
0
 10
714.580053
 20
748.439143
 42
0.251552
  0
VERTEX
  8
0
 10
713.551855
 20
748.949120
 42
0.195960
  0
VERTEX
  8
0
 10
712.331821
 20
748.405079
 42
0.114747
  0
SEQEND
  0
POLYLINE
  8
0
 66
1
 70
1
  0
VERTEX
  8
0
 10
704.178862
 20
745.085203
 42
0.041055
  0
VERTEX
  8
0
 10
705.301107
 20
743.578888
 42
0.181325
  0
VERTEX
  8
0
 10
706.260887
 20
743.067359
 42
0.399218
  0
VERTEX
  8
0
 10
706.816825
 20
743.471635
 42
0.093430
  0
VERTEX
  8
0
 10
706.811841
 20
744.738516
 42
0.086669
  0
VERTEX
  8
0
 10
706.549423
 20
745.429064
 42
0.065377
  0
VERTEX
  8
0
 10
706.046574
 20
746.068183
 42
0.064778
  0
VERTEX
  8
0
 10
705.390061
 20
746.561308
 42
0.081327
  0
VERTEX
  8
0
 10
704.676832
 20
746.823720
 42
0.027940
  0
VERTEX
  8
0
 10
703.688267
 20
746.957377
 42
0.356652
  0
VERTEX
  8
0
 10
703.401910
 20
746.758659
 42
0.200306
  0
VERTEX
  8
0
 10
703.454730
 20
746.306992
 42
0.011613
  0
SEQEND
  0
POLYLINE
  8
0
 66
1
 70
1
  0
VERTEX
  8
0
 10
722.073886
 20
742.589028
 42
0.112253
  0
VERTEX
  8
0
 10
721.431337
 20
741.321429
 42
0.419653
  0
VERTEX
  8
0
 10
721.850065
 20
740.637056
 42
0.197505
  0
VERTEX
  8
0
 10
723.102740
 20
740.842992
 42
0.070693
  0
VERTEX
  8
0
 10
724.521341
 20
742.023581
 42
0.011349
  0
VERTEX
  8
0
 10
725.479033
 20
743.131346
 42
0.141257
  0
VERTEX
  8
0
 10
725.698000
 20
743.635816
 42
0.383604
  0
VERTEX
  8
0
 10
725.506030
 20
743.914185
 42
0.058688
  0
VERTEX
  8
0
 10
724.777432
 20
744.000000
 42
0.075932
  0
VERTEX
  8
0
 10
724.105122
 20
743.897308
 42
0.044496
  0
VERTEX
  8
0
 10
723.351092
 20
743.585527
 42
0.043325
  0
VERTEX
  8
0
 10
722.635050
 20
743.128981
 42
0.056026
  0
SEQEND
  0
POLYLINE
  8
0
 66
1
 70
1
  0
VERTEX
  8
0
 10
713.015313
 20
739.250000
 42
0.075031
  0
VERTEX
  8
0
 10
713.081480
 20
738.864990
 42
0.020637
  0
VERTEX
  8
0
 10
713.299407
 20
738.288195
 42
0.020367
  0
VERTEX
  8
0
 10
713.603722
 20
737.647189
 42
0.019990
  0
VERTEX
  8
0
 10
713.960940
 20
737.028960
 42
0.113519
  0
VERTEX
  8
0
 10
714.784441
 20
736.212984
 42
0.324499
  0
VERTEX
  8
0
 10
715.543662
 20
736.268368
 42
0.229589
  0
VERTEX
  8
0
 10
715.924394
 20
737.123080
 42
0.083724
  0
VERTEX
  8
0
 10
715.654923
 20
738.456872
 42
0.107188
  0
VERTEX
  8
0
 10
715.033337
 20
739.405681
 42
0.121943
  0
VERTEX
  8
0
 10
714.100216
 20
739.958166
 42
0.214151
  0
VERTEX
  8
0
 10
713.347802
 20
739.859767
 42
0.265819
  0
SEQEND
  0
POLYLINE
  8
0
 66
1
 70
1
  0
VERTEX
  8
0
 10
695.459563
 20
737.509162
 42
0.046693
  0
VERTEX
  8
0
 10
696.897448
 20
736.584409
 42
0.121228
  0
VERTEX
  8
0
 10
698.086278
 20
736.297340
 42
0.229079
  0
VERTEX
  8
0
 10
698.828802
 20
736.660363
 42
0.179564
  0
VERTEX
  8
0
 10
699.106089
 20
737.525000
 42
0.224120
  0
VERTEX
  8
0
 10
698.898061
 20
737.918837
 42
0.057062
  0
VERTEX
  8
0
 10
698.258132
 20
738.293682
 42
0.046934
  0
VERTEX
  8
0
 10
697.349312
 20
738.596958
 42
0.032652
  0
VERTEX
  8
0
 10
696.281089
 20
738.772641
 42
0.004659
  0
VERTEX
  8
0
 10
694.449351
 20
738.934996
 42
0.274972
  0
VERTEX
  8
0
 10
694.161098
 20
738.793044
 42
0.380971
  0
VERTEX
  8
0
 10
694.202509
 20
738.521738
 42
0.006622
  0
SEQEND
  0
POLYLINE
  8
0
 66
1
 70
1
  0
VERTEX
  8
0
 10
706.000000
 20
737.106989
 42
0.218838
  0
VERTEX
  8
0
 10
706.351599
 20
736.342130
 42
0.079209
  0
VERTEX
  8
0
 10
707.394883
 20
735.701133
 42
0.079214
  0
VERTEX
  8
0
 10
708.585694
 20
735.416330
 42
0.218914
  0
VERTEX
  8
0
 10
709.375048
 20
735.708381
 42
0.112362
  0
VERTEX
  8
0
 10
709.552986
 20
735.991182
 42
0.077846
  0
VERTEX
  8
0
 10
709.621794
 20
736.364130
 42
0.072274
  0
VERTEX
  8
0
 10
709.574254
 20
736.767811
 42
0.073142
  0
VERTEX
  8
0
 10
709.413797
 20
737.139480
 42
0.166742
  0
VERTEX
  8
0
 10
708.649023
 20
737.766543
 42
0.091719
  0
VERTEX
  8
0
 10
707.443632
 20
737.977688
 42
0.109940
  0
VERTEX
  8
0
 10
706.394307
 20
737.733635
 42
0.288442
  0
SEQEND
  0
POLYLINE
  8
0
 66
1
 70
1
  0
VERTEX
  8
0
 10
722.693853
 20
736.360520
 42
0.194761
  0
VERTEX
  8
0
 10
722.381568
 20
735.623320
 42
0.172865
  0
VERTEX
  8
0
 10
722.649978
 20
734.830294
 42
0.128462
  0
VERTEX
  8
0
 10
723.462204
 20
734.217225
 42
0.098073
  0
VERTEX
  8
0
 10
724.559017
 20
734.000000
 42
0.103216
  0
VERTEX
  8
0
 10
725.108867
 20
734.114729
 42
0.098834
  0
VERTEX
  8
0
 10
725.576711
 20
734.440625
 42
0.096907
  0
VERTEX
  8
0
 10
725.890211
 20
734.927451
 42
0.095012
  0
VERTEX
  8
0
 10
726.000000
 20
735.500000
 42
0.179946
  0
VERTEX
  8
0
 10
725.664381
 20
736.402360
 42
0.152160
  0
VERTEX
  8
0
 10
724.795110
 20
736.943280
 42
0.132661
  0
VERTEX
  8
0
 10
723.672804
 20
736.933008
 42
0.128822
  0
SEQEND
  0
POLYLINE
  8
0
 66
1
 70
1
  0
VERTEX
  8
0
 10
732.200000
 20
735.800000
 42
0.184518
  0
VERTEX
  8
0
 10
731.154954
 20
733.462778
 42
0.156016
  0
VERTEX
  8
0
 10
731.839329
 20
730.826611
 42
0.131367
  0
VERTEX
  8
0
 10
734.082942
 20
728.753083
 42
0.121793
  0
VERTEX
  8
0
 10
737.128741
 20
728.000000
 42
0.117010
  0
VERTEX
  8
0
 10
739.980578
 20
728.676652
 42
0.179946
  0
VERTEX
  8
0
 10
741.688644
 20
730.514576
 42
0.185578
  0
VERTEX
  8
0
 10
741.751974
 20
732.975162
 42
0.124128
  0
VERTEX
  8
0
 10
740.171259
 20
735.345012
 42
0.095675
  0
VERTEX
  8
0
 10
738.327374
 20
736.462343
 42
0.074389
  0
VERTEX
  8
0
 10
736.026899
 20
736.941908
 42
0.078261
  0
VERTEX
  8
0
 10
733.807096
 20
736.721006
 42
0.133282
  0
SEQEND
  0
POLYLINE
  8
0
 66
1
 70
1
  0
VERTEX
  8
0
 10
695.653050
 20
733.077774
 42
0.024477
  0
VERTEX
  8
0
 10
694.661423
 20
732.660997
 42
0.235174
  0
VERTEX
  8
0
 10
694.388124
 20
732.310319
 42
0.247557
  0
VERTEX
  8
0
 10
694.510358
 20
731.893557
 42
0.026862
  0
VERTEX
  8
0
 10
695.270371
 20
731.190575
 42
0.045242
  0
VERTEX
  8
0
 10
696.063514
 20
730.645272
 42
0.148673
  0
VERTEX
  8
0
 10
696.677274
 20
730.510150
 42
0.152611
  0
VERTEX
  8
0
 10
697.252442
 20
730.740796
 42
0.048491
  0
VERTEX
  8
0
 10
697.915880
 20
731.398641
 42
0.097808
  0
VERTEX
  8
0
 10
698.509157
 20
732.490519
 42
0.318987
  0
VERTEX
  8
0
 10
698.268283
 20
733.230150
 42
0.197219
  0
VERTEX
  8
0
 10
697.274741
 20
733.482736
 42
0.052160
  0
SEQEND
  0
POLYLINE
  8
0
 66
1
 70
1
  0
VERTEX
  8
0
 10
710.000000
 20
731.500000
 42
0.064853
  0
VERTEX
  8
0
 10
710.074694
 20
730.926543
 42
0.082425
  0
VERTEX
  8
0
 10
710.293750
 20
730.440625
 42
0.098894
  0
VERTEX
  8
0
 10
710.618646
 20
730.115568
 42
0.148195
  0
VERTEX
  8
0
 10
711.000000
 20
730.000000
 42
0.148195
  0
VERTEX
  8
0
 10
711.381354
 20
730.115568
 42
0.098894
  0
VERTEX
  8
0
 10
711.706250
 20
730.440625
 42
0.082425
  0
VERTEX
  8
0
 10
711.925306
 20
730.926543
 42
0.064853
  0
VERTEX
  8
0
 10
712.000000
 20
731.500000
 42
0.064853
  0
VERTEX
  8
0
 10
711.925306
 20
732.073457
 42
0.082425
  0
VERTEX
  8
0
 10
711.706250
 20
732.559375
 42
0.098894
  0
VERTEX
  8
0
 10
711.381354
 20
732.884432
 42
0.148195
  0
VERTEX
  8
0
 10
711.000000
 20
733.000000
 42
0.148195
  0
VERTEX
  8
0
 10
710.618646
 20
732.884432
 42
0.098894
  0
VERTEX
  8
0
 10
710.293750
 20
732.559375
 42
0.082425
  0
VERTEX
  8
0
 10
710.074694
 20
732.073457
 42
0.064853
  0
SEQEND
  0
POLYLINE
  8
0
 66
1
 70
1
  0
VERTEX
  8
0
 10
717.000000
 20
731.000000
 42
0.092995
  0
VERTEX
  8
0
 10
717.071618
 20
730.618268
 42
0.096318
  0
VERTEX
  8
0
 10
717.276414
 20
730.293750
 42
0.099231
  0
VERTEX
  8
0
 10
717.581949
 20
730.076556
 42
0.105429
  0
VERTEX
  8
0
 10
717.940983
 20
730.000000
 42
0.089642
  0
VERTEX
  8
0
 10
718.346558
 20
730.073302
 42
0.053229
  0
VERTEX
  8
0
 10
718.787100
 20
730.293750
 42
0.051032
  0
VERTEX
  8
0
 10
719.193797
 20
730.617485
 42
0.060810
  0
VERTEX
  8
0
 10
719.500000
 20
731.000000
 42
0.139169
  0
VERTEX
  8
0
 10
719.607943
 20
731.379648
 42
0.191142
  0
VERTEX
  8
0
 10
719.478525
 20
731.706250
 42
0.138808
  0
VERTEX
  8
0
 10
719.110654
 20
731.926733
 42
0.066118
  0
VERTEX
  8
0
 10
718.559017
 20
732.000000
 42
0.062283
  0
VERTEX
  8
0
 10
717.962904
 20
731.925455
 42
0.080552
  0
VERTEX
  8
0
 10
717.457961
 20
731.706250
 42
0.097988
  0
VERTEX
  8
0
 10
717.120018
 20
731.381379
 42
0.153634
  0
SEQEND
  0
POLYLINE
  8
0
 66
1
 70
1
  0
VERTEX
  8
0
 10
723.249533
 20
726.750000
 42
0.158083
  0
VERTEX
  8
0
 10
724.039168
 20
725.678258
 42
0.134870
  0
VERTEX
  8
0
 10
725.361025
 20
725.189563
 42
0.175333
  0
VERTEX
  8
0
 10
726.515014
 20
725.497960
 42
0.245384
  0
VERTEX
  8
0
 10
727.000000
 20
726.426676
 42
0.120240
  0
VERTEX
  8
0
 10
726.846770
 20
727.054646
 42
0.111791
  0
VERTEX
  8
0
 10
726.418960
 20
727.561201
 42
0.095670
  0
VERTEX
  8
0
 10
725.751548
 20
727.888599
 42
0.066422
  0
VERTEX
  8
0
 10
724.916667
 20
728.000000
 42
0.053387
  0
VERTEX
  8
0
 10
724.110991
 20
727.913730
 42
0.107922
  0
VERTEX
  8
0
 10
723.533315
 20
727.649944
 42
0.156475
  0
VERTEX
  8
0
 10
723.245859
 20
727.244726
 42
0.158297
  0
SEQEND
  0
POLYLINE
  8
0
 66
1
 70
1
  0
VERTEX
  8
0
 10
707.542705
 20
726.069098
 42
0.108373
  0
VERTEX
  8
0
 10
707.401101
 20
725.665803
 42
0.099685
  0
VERTEX
  8
0
 10
707.434921
 20
725.227140
 42
0.095498
  0
VERTEX
  8
0
 10
707.639411
 20
724.820631
 42
0.090427
  0
VERTEX
  8
0
 10
707.983688
 20
724.510081
 42
0.136093
  0
VERTEX
  8
0
 10
708.369640
 20
724.397824
 42
0.190788
  0
VERTEX
  8
0
 10
708.701458
 20
724.524436
 42
0.140899
  0
VERTEX
  8
0
 10
708.925389
 20
724.890269
 42
0.067432
  0
VERTEX
  8
0
 10
709.000000
 20
725.440983
 42
0.039415
  0
VERTEX
  8
0
 10
708.914842
 20
726.519563
 42
0.257010
  0
VERTEX
  8
0
 10
708.592818
 20
726.933879
 42
0.315493
  0
VERTEX
  8
0
 10
708.133140
 20
726.838655
 42
0.050477
  0
SEQEND
  0
POLYLINE
  8
0
 66
1
 70
1
  0
VERTEX
  8
0
 10
685.072580
 20
722.365141
 42
0.090743
  0
VERTEX
  8
0
 10
683.327479
 20
719.057868
 42
0.181310
  0
VERTEX
  8
0
 10
683.485378
 20
716.146708
 42
0.224724
  0
VERTEX
  8
0
 10
685.416690
 20
714.467165
 42
0.130632
  0
VERTEX
  8
0
 10
688.551705
 20
714.423621
 42
0.157441
  0
VERTEX
  8
0
 10
690.839129
 20
715.852063
 42
0.054237
  0
VERTEX
  8
0
 10
693.041738
 20
719.128319
 42
0.056958
  0
VERTEX
  8
0
 10
694.356084
 20
722.519739
 42
0.325962
  0
VERTEX
  8
0
 10
693.691452
 20
724.211855
 42
0.108486
  0
VERTEX
  8
0
 10
691.599684
 20
724.975880
 42
0.086501
  0
VERTEX
  8
0
 10
689.193706
 20
724.883203
 42
0.083430
  0
VERTEX
  8
0
 10
686.884016
 20
723.967246
 42
0.090309
  0
SEQEND
  0
POLYLINE
  8
0
 66
1
 70
1
  0
VERTEX
  8
0
 10
698.000000
 20
720.500000
 42
0.081351
  0
VERTEX
  8
0
 10
698.275984
 20
718.814975
 42
0.266330
  0
VERTEX
  8
0
 10
699.089339
 20
718.093610
 42
0.222694
  0
VERTEX
  8
0
 10
700.260001
 20
718.371768
 42
0.062575
  0
VERTEX
  8
0
 10
701.607954
 20
719.750000
 42
0.027958
  0
VERTEX
  8
0
 10
702.736461
 20
721.423109
 42
0.219962
  0
VERTEX
  8
0
 10
702.831681
 20
722.331205
 42
0.276191
  0
VERTEX
  8
0
 10
702.208941
 20
722.859251
 42
0.041111
  0
VERTEX
  8
0
 10
700.500000
 20
723.000000
 42
0.045527
  0
VERTEX
  8
0
 10
699.231486
 20
722.884257
 42
0.152009
  0
VERTEX
  8
0
 10
698.500000
 20
722.500000
 42
0.152009
  0
VERTEX
  8
0
 10
698.115743
 20
721.768514
 42
0.045527
  0
SEQEND
  0
POLYLINE
  8
0
 66
1
 70
1
  0
VERTEX
  8
0
 10
718.170670
 20
719.352297
 42
0.083965
  0
VERTEX
  8
0
 10
718.441989
 20
718.626620
 42
0.065109
  0
VERTEX
  8
0
 10
718.956845
 20
717.956845
 42
0.065109
  0
VERTEX
  8
0
 10
719.626620
 20
717.441989
 42
0.083965
  0
VERTEX
  8
0
 10
720.352297
 20
717.170670
 42
0.055897
  0
VERTEX
  8
0
 10
721.189171
 20
717.104776
 42
0.190324
  0
VERTEX
  8
0
 10
721.681626
 20
717.318374
 42
0.190324
  0
VERTEX
  8
0
 10
721.895224
 20
717.810829
 42
0.055897
  0
VERTEX
  8
0
 10
721.829330
 20
718.647703
 42
0.083965
  0
VERTEX
  8
0
 10
721.558011
 20
719.373380
 42
0.065109
  0
VERTEX
  8
0
 10
721.043155
 20
720.043155
 42
0.065109
  0
VERTEX
  8
0
 10
720.373380
 20
720.558011
 42
0.083965
  0
VERTEX
  8
0
 10
719.647703
 20
720.829330
 42
0.055897
  0
VERTEX
  8
0
 10
718.810829
 20
720.895224
 42
0.190324
  0
VERTEX
  8
0
 10
718.318374
 20
720.681626
 42
0.190324
  0
VERTEX
  8
0
 10
718.104776
 20
720.189171
 42
0.055897
  0
SEQEND
  0
POLYLINE
  8
0
 66
1
 70
1
  0
VERTEX
  8
0
 10
707.000000
 20
716.000000
 42
0.072254
  0
VERTEX
  8
0
 10
707.126841
 20
715.126841
 42
0.124864
  0
VERTEX
  8
0
 10
707.500000
 20
714.500000
 42
0.124864
  0
VERTEX
  8
0
 10
708.126841
 20
714.126841
 42
0.072254
  0
VERTEX
  8
0
 10
709.000000
 20
714.000000
 42
0.072254
  0
VERTEX
  8
0
 10
709.873159
 20
714.126841
 42
0.124864
  0
VERTEX
  8
0
 10
710.500000
 20
714.500000
 42
0.124864
  0
VERTEX
  8
0
 10
710.873159
 20
715.126841
 42
0.072254
  0
VERTEX
  8
0
 10
711.000000
 20
716.000000
 42
0.072254
  0
VERTEX
  8
0
 10
710.873159
 20
716.873159
 42
0.124864
  0
VERTEX
  8
0
 10
710.500000
 20
717.500000
 42
0.124864
  0
VERTEX
  8
0
 10
709.873159
 20
717.873159
 42
0.072254
  0
VERTEX
  8
0
 10
709.000000
 20
718.000000
 42
0.072254
  0
VERTEX
  8
0
 10
708.126841
 20
717.873159
 42
0.124864
  0
VERTEX
  8
0
 10
707.500000
 20
717.500000
 42
0.124864
  0
VERTEX
  8
0
 10
707.126841
 20
716.873159
 42
0.072254
  0
SEQEND
  0
POLYLINE
  8
0
 66
1
 70
1
  0
VERTEX
  8
0
 10
715.571429
 20
711.428571
 42
0.063608
  0
VERTEX
  8
0
 10
714.453160
 20
709.982788
 42
0.134640
  0
VERTEX
  8
0
 10
714.086951
 20
708.626055
 42
0.113831
  0
VERTEX
  8
0
 10
714.440949
 20
707.119055
 42
0.038421
  0
VERTEX
  8
0
 10
715.596693
 20
705.165414
 42
0.122074
  0
VERTEX
  8
0
 10
717.556904
 20
703.457109
 42
0.155329
  0
VERTEX
  8
0
 10
719.910377
 20
703.063535
 42
0.175019
  0
VERTEX
  8
0
 10
721.861657
 20
704.101883
 42
0.156343
  0
VERTEX
  8
0
 10
722.811650
 20
706.200547
 42
0.099373
  0
VERTEX
  8
0
 10
722.509972
 20
709.818036
 42
0.167569
  0
VERTEX
  8
0
 10
720.775909
 20
712.281478
 42
0.208732
  0
VERTEX
  8
0
 10
718.206603
 20
712.839421
 42
0.147986
  0
SEQEND
  0
POLYLINE
  8
0
 66
1
 70
1
  0
VERTEX
  8
0
 10
181.278145
 20
900.878145
 42
0.143452
  0
VERTEX
  8
0
 10
180.585823
 20
899.612180
 42
0.186040
  0
VERTEX
  8
0
 10
180.784956
 20
898.315610
 42
0.159623
  0
VERTEX
  8
0
 10
181.857889
 20
897.347755
 42
0.104725
  0
VERTEX
  8
0
 10
183.500000
 20
897.000000
 42
0.119636
  0
VERTEX
  8
0
 10
185.029675
 20
897.371322
 42
0.118200
  0
VERTEX
  8
0
 10
186.226827
 20
898.403614
 42
0.131387
  0
VERTEX
  8
0
 10
186.746923
 20
899.774442
 42
0.165210
  0
VERTEX
  8
0
 10
186.444227
 20
901.090242
 42
0.182760
  0
VERTEX
  8
0
 10
185.552068
 20
901.776514
 42
0.083995
  0
VERTEX
  8
0
 10
184.074952
 20
901.964469
 42
0.077414
  0
VERTEX
  8
0
 10
182.488807
 20
901.650279
 42
0.109263
  0
SEQEND
  0
POLYLINE
  8
0
 66
1
 70
1
  0
VERTEX
  8
0
 10
170.000000
 20
898.067388
 42
0.179461
  0
VERTEX
  8
0
 10
170.586418
 20
896.486172
 42
0.141310
  0
VERTEX
  8
0
 10
172.125762
 20
895.478184
 42
0.129442
  0
VERTEX
  8
0
 10
174.077299
 20
895.397070
 42
0.143341
  0
VERTEX
  8
0
 10
175.729831
 20
896.301260
 42
0.110528
  0
VERTEX
  8
0
 10
176.623285
 20
897.709899
 42
0.252981
  0
VERTEX
  8
0
 10
176.440542
 20
898.915022
 42
0.175058
  0
VERTEX
  8
0
 10
175.176084
 20
899.740090
 42
0.057947
  0
VERTEX
  8
0
 10
172.940983
 20
900.000000
 42
0.032194
  0
VERTEX
  8
0
 10
171.496741
 20
899.906911
 42
0.113645
  0
VERTEX
  8
0
 10
170.630441
 20
899.585717
 42
0.161825
  0
VERTEX
  8
0
 10
170.162639
 20
898.993492
 42
0.087141
  0
SEQEND
  0
POLYLINE
  8
0
 66
1
 70
1
  0
VERTEX
  8
0
 10
174.500000
 20
898.000000
 42
-0.139169
  0
VERTEX
  8
0
 10
174.607943
 20
897.620352
 42
-0.191142
  0
VERTEX
  8
0
 10
174.478525
 20
897.293750
 42
-0.138808
  0
VERTEX
  8
0
 10
174.110654
 20
897.073267
 42
-0.066118
  0
VERTEX
  8
0
 10
173.559017
 20
897.000000
 42
-0.062283
  0
VERTEX
  8
0
 10
172.962904
 20
897.074545
 42
-0.080552
  0
VERTEX
  8
0
 10
172.457961
 20
897.293750
 42
-0.097988
  0
VERTEX
  8
0
 10
172.120018
 20
897.618621
 42
-0.153634
  0
VERTEX
  8
0
 10
172.000000
 20
898.000000
 42
-0.092995
  0
VERTEX
  8
0
 10
172.071618
 20
898.381732
 42
-0.096318
  0
VERTEX
  8
0
 10
172.276414
 20
898.706250
 42
-0.099231
  0
VERTEX
  8
0
 10
172.581949
 20
898.923444
 42
-0.105429
  0
VERTEX
  8
0
 10
172.940983
 20
899.000000
 42
-0.089642
  0
VERTEX
  8
0
 10
173.346558
 20
898.926698
 42
-0.053229
  0
VERTEX
  8
0
 10
173.787100
 20
898.706250
 42
-0.051032
  0
VERTEX
  8
0
 10
174.193797
 20
898.382515
 42
-0.060810
  0
SEQEND
  0
POLYLINE
  8
0
 66
1
 70
1
  0
VERTEX
  8
0
 10
189.570027
 20
895.113307
 42
0.269997
  0
VERTEX
  8
0
 10
189.541224
 20
894.012338
 42
0.122546
  0
VERTEX
  8
0
 10
190.553799
 20
892.914766
 42
0.113561
  0
VERTEX
  8
0
 10
192.021697
 20
892.369560
 42
0.232792
  0
VERTEX
  8
0
 10
193.155249
 20
892.755249
 42
0.077320
  0
VERTEX
  8
0
 10
193.513849
 20
893.245979
 42
0.073646
  0
VERTEX
  8
0
 10
193.713914
 20
893.830625
 42
0.077915
  0
VERTEX
  8
0
 10
193.729843
 20
894.416864
 42
0.106708
  0
VERTEX
  8
0
 10
193.553851
 20
894.912868
 42
0.140479
  0
VERTEX
  8
0
 10
192.737123
 20
895.655760
 42
0.102530
  0
VERTEX
  8
0
 10
191.543619
 20
895.966387
 42
0.106363
  0
VERTEX
  8
0
 10
190.361266
 20
895.773567
 42
0.162312
  0
SEQEND
  0
POLYLINE
  8
0
 66
1
 70
1
  0
VERTEX
  8
0
 10
177.754296
 20
892.750000
 42
0.090190
  0
VERTEX
  8
0
 10
177.521352
 20
891.413025
 42
0.110141
  0
VERTEX
  8
0
 10
177.806159
 20
890.178815
 42
0.129410
  0
VERTEX
  8
0
 10
178.536028
 20
889.318546
 42
0.153650
  0
VERTEX
  8
0
 10
179.548150
 20
889.000000
 42
0.185744
  0
VERTEX
  8
0
 10
180.717040
 20
889.449745
 42
0.068698
  0
VERTEX
  8
0
 10
181.871806
 20
890.823485
 42
0.072631
  0
VERTEX
  8
0
 10
182.558936
 20
892.375375
 42
0.270636
  0
VERTEX
  8
0
 10
182.298150
 20
893.368517
 42
0.150309
  0
VERTEX
  8
0
 10
181.258509
 20
893.919066
 42
0.081157
  0
VERTEX
  8
0
 10
179.796947
 20
893.958054
 42
0.084289
  0
VERTEX
  8
0
 10
178.452730
 20
893.537121
 42
0.188887
  0
SEQEND
  0
POLYLINE
  8
0
 66
1
 70
1
  0
VERTEX
  8
0
 10
169.170743
 20
889.824070
 42
0.068226
  0
VERTEX
  8
0
 10
169.485545
 20
888.716720
 42
0.115471
  0
VERTEX
  8
0
 10
170.061035
 20
887.948828
 42
0.101638
  0
VERTEX
  8
0
 10
170.975456
 20
887.455022
 42
0.044660
  0
VERTEX
  8
0
 10
172.329257
 20
887.175930
 42
0.024052
  0
VERTEX
  8
0
 10
173.903604
 20
887.071951
 42
0.174900
  0
VERTEX
  8
0
 10
174.609203
 20
887.312410
 42
0.222167
  0
VERTEX
  8
0
 10
174.904723
 20
887.910647
 42
0.040604
  0
VERTEX
  8
0
 10
174.829257
 20
889.175930
 42
0.068226
  0
VERTEX
  8
0
 10
174.514455
 20
890.283280
 42
0.115471
  0
VERTEX
  8
0
 10
173.938965
 20
891.051172
 42
0.101638
  0
VERTEX
  8
0
 10
173.024544
 20
891.544978
 42
0.044660
  0
VERTEX
  8
0
 10
171.670743
 20
891.824070
 42
0.024052
  0
VERTEX
  8
0
 10
170.096396
 20
891.928049
 42
0.174900
  0
VERTEX
  8
0
 10
169.390797
 20
891.687590
 42
0.222167
  0
VERTEX
  8
0
 10
169.095277
 20
891.089353
 42
0.040604
  0
SEQEND
  0
POLYLINE
  8
0
 66
1
 70
1
  0
VERTEX
  8
0
 10
173.457295
 20
890.069098
 42
-0.221146
  0
VERTEX
  8
0
 10
173.555025
 20
889.246757
 42
-0.174599
  0
VERTEX
  8
0
 10
172.997313
 20
888.532160
 42
-0.137965
  0
VERTEX
  8
0
 10
171.986908
 20
888.232649
 42
-0.142848
  0
VERTEX
  8
0
 10
170.983688
 20
888.510081
 42
-0.189436
  0
VERTEX
  8
0
 10
170.496365
 20
889.160814
 42
-0.165456
  0
VERTEX
  8
0
 10
170.547280
 20
890.014234
 42
-0.147302
  0
VERTEX
  8
0
 10
171.126679
 20
890.730681
 42
-0.150691
  0
VERTEX
  8
0
 10
172.000000
 20
891.000000
 42
-0.089140
  0
VERTEX
  8
0
 10
172.379855
 20
890.931737
 42
-0.053258
  0
VERTEX
  8
0
 10
172.791891
 20
890.726548
 42
-0.051122
  0
VERTEX
  8
0
 10
173.171806
 20
890.425183
 42
-0.061191
  0
SEQEND
  0
POLYLINE
  8
0
 66
1
 70
1
  0
VERTEX
  8
0
 10
184.000000
 20
890.106989
 42
0.079186
  0
VERTEX
  8
0
 10
184.122843
 20
889.336195
 42
0.065362
  0
VERTEX
  8
0
 10
184.482669
 20
888.584832
 42
0.066659
  0
VERTEX
  8
0
 10
185.014957
 20
887.965910
 42
0.090491
  0
VERTEX
  8
0
 10
185.643128
 20
887.583450
 42
0.026888
  0
VERTEX
  8
0
 10
186.877795
 20
887.184350
 42
0.233462
  0
VERTEX
  8
0
 10
187.427394
 20
887.295661
 42
0.145544
  0
VERTEX
  8
0
 10
187.817995
 20
887.839100
 42
0.008982
  0
VERTEX
  8
0
 10
188.443160
 20
889.750000
 42
0.036333
  0
VERTEX
  8
0
 10
188.725071
 20
890.978427
 42
0.215206
  0
VERTEX
  8
0
 10
188.552865
 20
891.598252
 42
0.192625
  0
VERTEX
  8
0
 10
187.956767
 20
891.920247
 42
0.028677
  0
VERTEX
  8
0
 10
186.567388
 20
892.000000
 42
0.042674
  0
VERTEX
  8
0
 10
185.367189
 20
891.897379
 42
0.116714
  0
VERTEX
  8
0
 10
184.589061
 20
891.565668
 42
0.148650
  0
VERTEX
  8
0
 10
184.152023
 20
890.979066
 42
0.086509
  0
SEQEND
  0
POLYLINE
  8
0
 66
1
 70
1
  0
VERTEX
  8
0
 10
190.821207
 20
885.506936
 42
0.022377
  0
VERTEX
  8
0
 10
190.245748
 20
884.077719
 42
0.101378
  0
VERTEX
  8
0
 10
190.124604
 20
883.192230
 42
0.157373
  0
VERTEX
  8
0
 10
190.384423
 20
882.538473
 42
0.079635
  0
VERTEX
  8
0
 10
191.056856
 20
881.947044
 42
0.223160
  0
VERTEX
  8
0
 10
192.349722
 20
881.786776
 42
0.125504
  0
VERTEX
  8
0
 10
193.712968
 20
882.651930
 42
0.105818
  0
VERTEX
  8
0
 10
194.658996
 20
884.213281
 42
0.132179
  0
VERTEX
  8
0
 10
194.778904
 20
885.897791
 42
0.125784
  0
VERTEX
  8
0
 10
194.141831
 20
887.243933
 42
0.249214
  0
VERTEX
  8
0
 10
193.079578
 20
887.680625
 42
0.184918
  0
VERTEX
  8
0
 10
191.852257
 20
887.066203
 42
0.078516
  0
SEQEND
  0
POLYLINE
  8
0
 66
1
 70
1
  0
VERTEX
  8
0
 10
173.347199
 20
883.431316
 42
0.019088
  0
VERTEX
  8
0
 10
172.234296
 20
882.498879
 42
0.221879
  0
VERTEX
  8
0
 10
172.019506
 20
881.988787
 42
0.205354
  0
VERTEX
  8
0
 10
172.264259
 20
881.473210
 42
0.016213
  0
VERTEX
  8
0
 10
173.459563
 20
880.486521
 42
0.057433
  0
VERTEX
  8
0
 10
175.113040
 20
879.488813
 42
0.177026
  0
VERTEX
  8
0
 10
176.394747
 20
879.388953
 42
0.209367
  0
VERTEX
  8
0
 10
177.299523
 20
880.128786
 42
0.081557
  0
VERTEX
  8
0
 10
177.802872
 20
881.701050
 42
0.137287
  0
VERTEX
  8
0
 10
177.603003
 20
883.281568
 42
0.203161
  0
VERTEX
  8
0
 10
176.614750
 20
884.242286
 42
0.166108
  0
VERTEX
  8
0
 10
175.054935
 20
884.306577
 42
0.093068
  0
SEQEND
  0
POLYLINE
  8
0
 66
1
 70
1
  0
VERTEX
  8
0
 10
182.200000
 20
883.800000
 42
0.052025
  0
VERTEX
  8
0
 10
181.187664
 20
882.551822
 42
0.243484
  0
VERTEX
  8
0
 10
181.098371
 20
881.660199
 42
0.278026
  0
VERTEX
  8
0
 10
181.761215
 20
881.155692
 42
0.062567
  0
VERTEX
  8
0
 10
183.239784
 20
881.180449
 42
0.069036
  0
VERTEX
  8
0
 10
184.120946
 20
881.433418
 42
0.065066
  0
VERTEX
  8
0
 10
184.919609
 20
881.920194
 42
0.069535
  0
VERTEX
  8
0
 10
185.518456
 20
882.557069
 42
0.107272
  0
VERTEX
  8
0
 10
185.813108
 20
883.250000
 42
0.171914
  0
VERTEX
  8
0
 10
185.641266
 20
884.370596
 42
0.236008
  0
VERTEX
  8
0
 10
184.821717
 20
884.949022
 42
0.153160
  0
VERTEX
  8
0
 10
183.526814
 20
884.749481
 42
0.082321
  0
SEQEND
  0
ENDSEC
  0
EOF
